  0
SECTION
  2
HEADER
  9
$ACADVER
  1
AC1015
  9
$ACADMAINTVER
 70
    20
  9
$DWGCODEPAGE
  3
ANSI_932
  9
$INSBASE
 10
0.0
 20
0.0
 30
0.0
  9
$EXTMIN
 10
-260.0219709798951
 20
-399.8393251062497
 30
-0.0015258207003583
  9
$EXTMAX
 10
460.0219743326561
 20
670.6280480280338
 30
0.0000000349246037
  9
$LIMMIN
 10
0.0
 20
0.0
  9
$LIMMAX
 10
0.0
 20
0.0
  9
$ORTHOMODE
 70
     0
  9
$REGENMODE
 70
     1
  9
$FILLMODE
 70
     1
  9
$QTEXTMODE
 70
     0
  9
$MIRRTEXT
 70
     1
  9
$LTSCALE
 40
20.32
  9
$ATTMODE
 70
     1
  9
$TEXTSIZE
 40
0.0
  9
$TRACEWID
 40
1.0
  9
$TEXTSTYLE
  7
STANDARD
  9
$CLAYER
  8
DATA
  9
$CELTYPE
  6
ByLayer
  9
$CECOLOR
 62
   256
  9
$CELTSCALE
 40
1.0
  9
$DISPSILH
 70
     0
  9
$DIMSCALE
 40
1.0
  9
$DIMASZ
 40
0.18
  9
$DIMEXO
 40
0.0625
  9
$DIMDLI
 40
0.38
  9
$DIMRND
 40
0.0
  9
$DIMDLE
 40
0.0
  9
$DIMEXE
 40
0.18
  9
$DIMTP
 40
0.0
  9
$DIMTM
 40
0.0
  9
$DIMTXT
 40
0.18
  9
$DIMCEN
 40
0.09
  9
$DIMTSZ
 40
0.0
  9
$DIMTOL
 70
     0
  9
$DIMLIM
 70
     0
  9
$DIMTIH
 70
     1
  9
$DIMTOH
 70
     1
  9
$DIMSE1
 70
     0
  9
$DIMSE2
 70
     0
  9
$DIMTAD
 70
     0
  9
$DIMZIN
 70
     0
  9
$DIMBLK
  1

  9
$DIMASO
 70
     1
  9
$DIMSHO
 70
     1
  9
$DIMPOST
  1

  9
$DIMAPOST
  1

  9
$DIMALT
 70
     0
  9
$DIMALTD
 70
     2
  9
$DIMALTF
 40
25.4
  9
$DIMLFAC
 40
1.0
  9
$DIMTOFL
 70
     0
  9
$DIMTVP
 40
0.0
  9
$DIMTIX
 70
     0
  9
$DIMSOXD
 70
     0
  9
$DIMSAH
 70
     0
  9
$DIMBLK1
  1

  9
$DIMBLK2
  1

  9
$DIMSTYLE
  2
STANDARD
  9
$DIMCLRD
 70
     0
  9
$DIMCLRE
 70
     0
  9
$DIMCLRT
 70
     0
  9
$DIMTFAC
 40
1.0
  9
$DIMGAP
 40
0.09
  9
$DIMJUST
 70
     0
  9
$DIMSD1
 70
     0
  9
$DIMSD2
 70
     0
  9
$DIMTOLJ
 70
     1
  9
$DIMTZIN
 70
     0
  9
$DIMALTZ
 70
     0
  9
$DIMALTTZ
 70
     0
  9
$DIMUPT
 70
     0
  9
$DIMDEC
 70
     4
  9
$DIMTDEC
 70
     4
  9
$DIMALTU
 70
     2
  9
$DIMALTTD
 70
     2
  9
$DIMTXSTY
  7
STANDARD
  9
$DIMAUNIT
 70
     0
  9
$DIMADEC
 70
     0
  9
$DIMALTRND
 40
0.0
  9
$DIMAZIN
 70
     0
  9
$DIMDSEP
 70
    46
  9
$DIMATFIT
 70
     3
  9
$DIMFRAC
 70
     0
  9
$DIMLDRBLK
  1

  9
$DIMLUNIT
 70
     2
  9
$DIMLWD
 70
    -2
  9
$DIMLWE
 70
    -2
  9
$DIMTMOVE
 70
     0
  9
$LUNITS
 70
     2
  9
$LUPREC
 70
     4
  9
$SKETCHINC
 40
0.1
  9
$FILLETRAD
 40
0.0
  9
$AUNITS
 70
     0
  9
$AUPREC
 70
     0
  9
$MENU
  1
acad
  9
$ELEVATION
 40
0.0
  9
$PELEVATION
 40
0.0
  9
$THICKNESS
 40
0.0
  9
$LIMCHECK
 70
     0
  9
$CHAMFERA
 40
0.0
  9
$CHAMFERB
 40
0.0
  9
$CHAMFERC
 40
0.0
  9
$CHAMFERD
 40
0.0
  9
$SKPOLY
 70
     0
  9
$TDCREATE
 40
2457812.587037037
  9
$TDUCREATE
 40
2457812.212037037
  9
$TDUPDATE
 40
2457812.627187500
  9
$TDUUPDATE
 40
2457812.252187500
  9
$TDINDWG
 40
0.0003356481
  9
$TDUSRTIMER
 40
0.0003356481
  9
$USRTIMER
 70
     1
  9
$ANGBASE
 50
0.0
  9
$ANGDIR
 70
     0
  9
$PDMODE
 70
     1
  9
$PDSIZE
 40
-2.0
  9
$PLINEWID
 40
0.0
  9
$SPLFRAME
 70
     0
  9
$SPLINETYPE
 70
     6
  9
$SPLINESEGS
 70
     8
  9
$HANDSEED
  5
46F
  9
$SURFTAB1
 70
     6
  9
$SURFTAB2
 70
     6
  9
$SURFTYPE
 70
     6
  9
$SURFU
 70
     6
  9
$SURFV
 70
     6
  9
$UCSBASE
  2

  9
$UCSNAME
  2

  9
$UCSORG
 10
0.0
 20
0.0
 30
0.0
  9
$UCSXDIR
 10
1.0
 20
0.0
 30
0.0
  9
$UCSYDIR
 10
0.0
 20
1.0
 30
0.0
  9
$UCSORTHOREF
  2

  9
$UCSORTHOVIEW
 70
     0
  9
$UCSORGTOP
 10
0.0
 20
0.0
 30
0.0
  9
$UCSORGBOTTOM
 10
0.0
 20
0.0
 30
0.0
  9
$UCSORGLEFT
 10
0.0
 20
0.0
 30
0.0
  9
$UCSORGRIGHT
 10
0.0
 20
0.0
 30
0.0
  9
$UCSORGFRONT
 10
0.0
 20
0.0
 30
0.0
  9
$UCSORGBACK
 10
0.0
 20
0.0
 30
0.0
  9
$PUCSBASE
  2

  9
$PUCSNAME
  2

  9
$PUCSORG
 10
0.0
 20
0.0
 30
0.0
  9
$PUCSXDIR
 10
1.0
 20
0.0
 30
0.0
  9
$PUCSYDIR
 10
0.0
 20
1.0
 30
0.0
  9
$PUCSORTHOREF
  2

  9
$PUCSORTHOVIEW
 70
     0
  9
$PUCSORGTOP
 10
0.0
 20
0.0
 30
0.0
  9
$PUCSORGBOTTOM
 10
0.0
 20
0.0
 30
0.0
  9
$PUCSORGLEFT
 10
0.0
 20
0.0
 30
0.0
  9
$PUCSORGRIGHT
 10
0.0
 20
0.0
 30
0.0
  9
$PUCSORGFRONT
 10
0.0
 20
0.0
 30
0.0
  9
$PUCSORGBACK
 10
0.0
 20
0.0
 30
0.0
  9
$USERI1
 70
     0
  9
$USERI2
 70
     0
  9
$USERI3
 70
     0
  9
$USERI4
 70
     0
  9
$USERI5
 70
     0
  9
$USERR1
 40
0.0
  9
$USERR2
 40
0.0
  9
$USERR3
 40
0.0
  9
$USERR4
 40
0.0
  9
$USERR5
 40
0.0
  9
$WORLDVIEW
 70
     1
  9
$SHADEDGE
 70
     3
  9
$SHADEDIF
 70
    70
  9
$TILEMODE
 70
     1
  9
$MAXACTVP
 70
    64
  9
$PINSBASE
 10
0.0
 20
0.0
 30
0.0
  9
$PLIMCHECK
 70
     0
  9
$PEXTMIN
 10
1.000000000000000E+20
 20
1.000000000000000E+20
 30
1.000000000000000E+20
  9
$PEXTMAX
 10
-1.000000000000000E+20
 20
-1.000000000000000E+20
 30
-1.000000000000000E+20
  9
$PLIMMIN
 10
0.0
 20
0.0
  9
$PLIMMAX
 10
12.0
 20
9.0
  9
$UNITMODE
 70
     0
  9
$VISRETAIN
 70
     0
  9
$PLINEGEN
 70
     1
  9
$PSLTSCALE
 70
     0
  9
$TREEDEPTH
 70
  3020
  9
$CMLSTYLE
  2
Standard
  9
$CMLJUST
 70
     0
  9
$CMLSCALE
 40
1.0
  9
$PROXYGRAPHICS
 70
     1
  9
$MEASUREMENT
 70
     0
  9
$CELWEIGHT
370
    -1
  9
$ENDCAPS
280
     0
  9
$JOINSTYLE
280
     0
  9
$LWDISPLAY
290
     0
  9
$INSUNITS
 70
     0
  9
$HYPERLINKBASE
  1

  9
$STYLESHEET
  1

  9
$XEDIT
290
     1
  9
$CEPSNTYPE
380
     0
  9
$PSTYLEMODE
290
     1
  9
$FINGERPRINTGUID
  2
{FF1C9E0F-78CE-B342-8A38-29B26E0B8A60}
  9
$VERSIONGUID
  2
{5FC730DA-AD51-E842-A829-CA346F61DA43}
  9
$EXTNAMES
290
     1
  9
$PSVPSCALE
 40
0.0
  9
$OLESTARTUP
290
     0
  0
ENDSEC
  0
SECTION
  2
CLASSES
  0
CLASS
  1
ACDBDICTIONARYWDFLT
  2
AcDbDictionaryWithDefault
  3
ObjectDBX Classes
 90
        0
280
     0
281
     0
  0
CLASS
  1
MATERIAL
  2
AcDbMaterial
  3
ObjectDBX Classes
 90
     1153
280
     0
281
     0
  0
CLASS
  1
VISUALSTYLE
  2
AcDbVisualStyle
  3
ObjectDBX Classes
 90
     4095
280
     0
281
     0
  0
CLASS
  1
SCALE
  2
AcDbScale
  3
ObjectDBX Classes
 90
     1153
280
     0
281
     0
  0
CLASS
  1
TABLESTYLE
  2
AcDbTableStyle
  3
ObjectDBX Classes
 90
     4095
280
     0
281
     0
  0
CLASS
  1
MLEADERSTYLE
  2
AcDbMLeaderStyle
  3
ACDB_MLEADERSTYLE_CLASS
 90
     4095
280
     0
281
     0
  0
CLASS
  1
ACDBSECTIONVIEWSTYLE
  2
AcDbSectionViewStyle
  3
ObjectDBX Classes
 90
     1025
280
     0
281
     0
  0
CLASS
  1
ACDBDETAILVIEWSTYLE
  2
AcDbDetailViewStyle
  3
ObjectDBX Classes
 90
     1025
280
     0
281
     0
  0
CLASS
  1
DICTIONARYVAR
  2
AcDbDictionaryVar
  3
ObjectDBX Classes
 90
        0
280
     0
281
     0
  0
CLASS
  1
CELLSTYLEMAP
  2
AcDbCellStyleMap
  3
ObjectDBX Classes
 90
     1152
280
     0
281
     0
  0
CLASS
  1
ACDBPLACEHOLDER
  2
AcDbPlaceHolder
  3
ObjectDBX Classes
 90
        0
280
     0
281
     0
  0
CLASS
  1
LAYOUT
  2
AcDbLayout
  3
ObjectDBX Classes
 90
        0
280
     0
281
     0
  0
ENDSEC
  0
SECTION
  2
TABLES
  0
TABLE
  2
VPORT
  5
399
330
0
100
AcDbSymbolTable
 70
     1
  0
VPORT
  5
405
330
399
100
AcDbSymbolTableRecord
100
AcDbViewportTableRecord
  2
*ACTIVE
 70
     0
 10
0.0
 20
0.0
 11
1.0
 21
1.0
 12
100.0000016763804
 22
136.4681874872241
 13
0.0
 23
0.0
 14
1.0
 24
1.0
 15
0.0
 25
0.0
 16
0.0
 26
0.0
 36
1.0
 17
0.0
 27
0.0
 37
0.0
 40
1074.265841978177
 41
2.358402971216341
 42
50.0
 43
0.0
 44
0.0
 50
0.0
 51
0.0
 71
     0
 72
  2000
 73
     1
 74
     1
 75
     0
 76
     0
 77
     0
 78
     0
281
     0
 65
     1
110
0.0
120
0.0
130
0.0
111
1.0
121
0.0
131
0.0
112
0.0
122
1.0
132
0.0
 79
     0
146
0.0
1001
ACAD_NAV_VCDISPLAY
1070
     3
  0
ENDTAB
  0
TABLE
  2
LTYPE
  5
396
330
0
100
AcDbSymbolTable
 70
    11
  0
LTYPE
  5
3EB
330
396
100
AcDbSymbolTableRecord
100
AcDbLinetypeTableRecord
  2
ByBlock
 70
     0
  3

 72
    65
 73
     0
 40
0.0
  0
LTYPE
  5
3EC
330
396
100
AcDbSymbolTableRecord
100
AcDbLinetypeTableRecord
  2
ByLayer
 70
     0
  3

 72
    65
 73
     0
 40
0.0
  0
LTYPE
  5
3ED
330
396
100
AcDbSymbolTableRecord
100
AcDbLinetypeTableRecord
  2
CONTINUOUS
 70
     0
  3
Solid line
 72
    65
 73
     0
 40
0.0
  0
ENDTAB
  0
TABLE
  2
LAYER
  5
393
330
0
100
AcDbSymbolTable
 70
     5
  0
LAYER
  5
3E5
102
{ACAD_XDICTIONARY
360
419
102
}
330
393
100
AcDbSymbolTableRecord
100
AcDbLayerTableRecord
  2
0
 70
     0
 62
     7
  6
CONTINUOUS
370
    -3
390
3A0
  0
LAYER
  5
404
102
{ACAD_XDICTIONARY
360
41B
102
}
330
393
100
AcDbSymbolTableRecord
100
AcDbLayerTableRecord
  2
DATA
 70
     0
 62
     7
  6
CONTINUOUS
370
    -3
390
3A0
  0
LAYER
  5
410
102
{ACAD_XDICTIONARY
360
41D
102
}
330
393
100
AcDbSymbolTableRecord
100
AcDbLayerTableRecord
  2
HIBINO-BASE
 70
     0
 62
     7
  6
CONTINUOUS
370
    -3
390
3A0
  0
LAYER
  5
411
102
{ACAD_XDICTIONARY
360
41F
102
}
330
393
100
AcDbSymbolTableRecord
100
AcDbLayerTableRecord
  2
SPEC
 70
     0
 62
     7
  6
CONTINUOUS
370
    -3
390
3A0
  0
LAYER
  5
412
102
{ACAD_XDICTIONARY
360
421
102
}
330
393
100
AcDbSymbolTableRecord
100
AcDbLayerTableRecord
  2
DIMNSIONS
 70
     0
 62
     7
  6
CONTINUOUS
370
    -3
390
3A0
  0
ENDTAB
  0
TABLE
  2
STYLE
  5
394
330
0
100
AcDbSymbolTable
 70
     3
  0
STYLE
  5
3E6
330
394
100
AcDbSymbolTableRecord
100
AcDbTextStyleTableRecord
  2
STANDARD
 70
     0
 40
0.0
 41
1.0
 50
0.0
 71
     0
 42
0.0
  3
txt
  4
BIGFONT.SHX
  0
ENDTAB
  0
TABLE
  2
VIEW
  5
397
330
0
100
AcDbSymbolTable
 70
     0
  0
ENDTAB
  0
TABLE
  2
UCS
  5
398
330
0
100
AcDbSymbolTable
 70
     0
  0
ENDTAB
  0
TABLE
  2
APPID
  5
39A
330
0
100
AcDbSymbolTable
 70
     4
  0
APPID
  5
3E7
330
39A
100
AcDbSymbolTableRecord
100
AcDbRegAppTableRecord
  2
ACAD
 70
     0
  0
APPID
  5
3EE
330
39A
100
AcDbSymbolTableRecord
100
AcDbRegAppTableRecord
  2
AcadAnnotative
 70
     0
  0
APPID
  5
42D
330
39A
100
AcDbSymbolTableRecord
100
AcDbRegAppTableRecord
  2
ACAD_NAV_VCDISPLAY
 70
     0
  0
APPID
  5
466
330
39A
100
AcDbSymbolTableRecord
100
AcDbRegAppTableRecord
  2
ACAD_MLEADERVER
 70
     0
  0
ENDTAB
  0
TABLE
  2
DIMSTYLE
  5
39B
330
0
100
AcDbSymbolTable
 70
     2
100
AcDbDimStyleTable
 71
     0
  0
DIMSTYLE
105
3E8
330
39B
100
AcDbSymbolTableRecord
100
AcDbDimStyleTableRecord
  2
STANDARD
 70
     0
279
     2
340
3E6
  0
ENDTAB
  0
TABLE
  2
BLOCK_RECORD
  5
392
330
0
100
AcDbSymbolTable
 70
     0
  0
BLOCK_RECORD
  5
400
330
392
100
AcDbSymbolTableRecord
100
AcDbBlockTableRecord
  2
*Model_Space
340
403
  0
BLOCK_RECORD
  5
3FC
330
392
100
AcDbSymbolTableRecord
100
AcDbBlockTableRecord
  2
*Paper_Space
340
3FF
  0
ENDTAB
  0
ENDSEC
  0
SECTION
  2
BLOCKS
  0
BLOCK
  5
401
330
400
100
AcDbEntity
  8
0
100
AcDbBlockBegin
  2
*Model_Space
 70
     0
 10
0.0
 20
0.0
 30
0.0
  3
*Model_Space
  1

  0
ENDBLK
  5
402
330
400
100
AcDbEntity
  8
0
100
AcDbBlockEnd
  0
BLOCK
  5
3FD
330
3FC
100
AcDbEntity
 67
     1
  8
0
100
AcDbBlockBegin
  2
*Paper_Space
 70
     0
 10
0.0
 20
0.0
 30
0.0
  3
*Paper_Space
  1

  0
ENDBLK
  5
3FE
330
3FC
100
AcDbEntity
 67
     1
  8
0
100
AcDbBlockEnd
  0
ENDSEC
  0
SECTION
  2
ENTITIES
  0
LINE
  5
2C
330
400
100
AcDbEntity
  8
HIBINO-BASE
  6
Continuous
 62
     7
100
AcDbLine
 10
-260.0
 20
670.5954450000001
 30
0.0
 11
460.0
 21
670.5954450000001
 31
0.0
  0
LINE
  5
2D
330
400
100
AcDbEntity
  8
HIBINO-BASE
  6
Continuous
 62
     7
100
AcDbLine
 10
460.0
 20
-369.404555
 30
0.0
 11
-260.0
 21
-369.404555
 31
0.0
  0
LINE
  5
2E
330
400
100
AcDbEntity
  8
HIBINO-BASE
  6
Continuous
 62
     7
100
AcDbLine
 10
-260.0
 20
-369.404555
 30
0.0
 11
-260.0
 21
670.5954450000001
 31
0.0
  0
LINE
  5
2F
330
400
100
AcDbEntity
  8
HIBINO-BASE
  6
Continuous
 62
     7
100
AcDbLine
 10
460.0
 20
670.5954450000001
 30
0.0
 11
460.0
 21
-369.404555
 31
0.0
  0
LINE
  5
30
330
400
100
AcDbEntity
  8
HIBINO-BASE
  6
Continuous
 62
     7
100
AcDbLine
 10
100.0
 20
-279.404555
 30
0.0
 11
460.0
 21
-279.404555
 31
0.0
  0
LINE
  5
31
330
400
100
AcDbEntity
  8
HIBINO-BASE
  6
Continuous
 62
     7
100
AcDbLine
 10
100.0
 20
-369.404555
 30
0.0
 11
100.0
 21
-279.404555
 31
0.0
  0
TEXT
  5
32
330
400
100
AcDbEntity
  8
HIBINO-BASE
 62
     7
100
AcDbText
 10
103.6
 20
-289.4393283333333
 30
0.0
 40
6.515364583333332
  1
NOTE
 41
0.7
 11
103.6
 21
-282.92396375
 31
0.0
100
AcDbText
 73
     3
  0
LINE
  5
33
330
400
100
AcDbEntity
  8
HIBINO-BASE
  6
Continuous
 62
     7
100
AcDbLine
 10
240.0
 20
-369.404555
 30
0.0
 11
240.0
 21
-279.404555
 31
0.0
  0
TEXT
  5
34
330
400
100
AcDbEntity
  8
HIBINO-BASE
 62
     7
100
AcDbText
 10
243.5999999999999
 20
-289.4393283333333
 30
0.0
 40
6.515364583333332
  1
TITLE
 41
0.7
 11
243.5999999999999
 21
-282.92396375
 31
0.0
100
AcDbText
 73
     3
  0
LINE
  5
35
330
400
100
AcDbEntity
  8
HIBINO-BASE
  6
Continuous
 62
     7
100
AcDbLine
 10
100.0
 20
-329.404555
 30
0.0
 11
460.0
 21
-329.404555
 31
0.0
  0
TEXT
  5
36
330
400
100
AcDbEntity
  8
HIBINO-BASE
 62
     7
100
AcDbText
 10
293.5999999999999
 20
-339.2140483333333
 30
0.0
 40
6.515364583333332
  1
DRAWN
 41
0.7
 11
293.5999999999999
 21
-332.69868375
 31
0.0
100
AcDbText
 73
     3
  0
TEXT
  5
37
330
400
100
AcDbEntity
  8
HIBINO-BASE
 62
     7
100
AcDbText
 10
193.6
 20
-339.2140483333333
 30
0.0
 40
6.515364583333332
  1
DATE
 41
0.7
 11
193.6
 21
-332.69868375
 31
0.0
100
AcDbText
 73
     3
  0
TEXT
  5
38
330
400
100
AcDbEntity
  8
HIBINO-BASE
 62
     7
100
AcDbText
 10
153.6
 20
-339.2140483333333
 30
0.0
 40
6.515364583333332
  1
SCALE
 41
0.7
 11
153.6
 21
-332.69868375
 31
0.0
100
AcDbText
 73
     3
  0
TEXT
  5
39
330
400
100
AcDbEntity
  8
HIBINO-BASE
 62
     7
100
AcDbText
 10
243.5999999999999
 20
-339.2140483333333
 30
0.0
 40
6.515364583333332
  1
DESIGN
 41
0.7
 11
243.5999999999999
 21
-332.69868375
 31
0.0
100
AcDbText
 73
     3
  0
TEXT
  5
3A
330
400
100
AcDbEntity
  8
HIBINO-BASE
 62
     7
100
AcDbText
 10
393.5999999999999
 20
-339.2140483333333
 30
0.0
 40
6.515364583333332
  1
DRAWING NO.
 41
0.7
 11
393.5999999999999
 21
-332.69868375
 31
0.0
100
AcDbText
 73
     3
  0
TEXT
  5
3B
330
400
100
AcDbEntity
  8
HIBINO-BASE
 62
     7
100
AcDbText
 10
343.5999999999999
 20
-339.2140483333333
 30
0.0
 40
6.515364583333332
  1
CHECK
 41
0.7
 11
343.5999999999999
 21
-332.69868375
 31
0.0
100
AcDbText
 73
     3
  0
LINE
  5
3C
330
400
100
AcDbEntity
  8
HIBINO-BASE
  6
Continuous
 62
     7
100
AcDbLine
 10
157.5
 20
-364.404555
 30
0.0
 11
172.5000000000001
 21
-349.404555
 31
0.0
  0
TEXT
  5
3D
330
400
100
AcDbEntity
  8
HIBINO-BASE
 62
     7
100
AcDbText
 10
155.0
 20
-353.8403283333334
 30
0.0
 40
6.515364583333332
  1
1
 41
0.7
 11
155.0
 21
-347.32496375
 31
0.0
100
AcDbText
 73
     3
  0
LINE
  5
3E
330
400
100
AcDbEntity
  8
HIBINO-BASE
  6
Continuous
 62
     7
100
AcDbLine
 10
150.0
 20
-369.404555
 30
0.0
 11
150.0
 21
-329.404555
 31
0.0
  0
LINE
  5
3F
330
400
100
AcDbEntity
  8
HIBINO-BASE
  6
Continuous
 62
     7
100
AcDbLine
 10
190.0
 20
-369.404555
 30
0.0
 11
190.0
 21
-329.404555
 31
0.0
  0
LINE
  5
40
330
400
100
AcDbEntity
  8
HIBINO-BASE
  6
Continuous
 62
     7
100
AcDbLine
 10
290.0
 20
-329.404555
 30
0.0
 11
290.0
 21
-369.404555
 31
0.0
  0
LINE
  5
41
330
400
100
AcDbEntity
  8
HIBINO-BASE
  6
Continuous
 62
     7
100
AcDbLine
 10
390.0
 20
-329.404555
 30
0.0
 11
390.0
 21
-369.404555
 31
0.0
  0
LINE
  5
42
330
400
100
AcDbEntity
  8
HIBINO-BASE
  6
Continuous
 62
     7
100
AcDbLine
 10
340.0
 20
-369.404555
 30
0.0
 11
340.0
 21
-329.404555
 31
0.0
  0
TEXT
  5
43
330
400
100
AcDbEntity
  8
HIBINO-BASE
 62
     7
100
AcDbText
 10
193.4261600000001
 20
-357.9499683333333
 30
0.0
 40
6.515364583333332
  1
'17.02.
 41
0.7
 11
193.4261600000001
 21
-351.43460375
 31
0.0
100
AcDbText
 73
     3
  0
TEXT
  5
44
330
400
100
AcDbEntity
  8
HIBINO-BASE
 62
     7
100
AcDbText
 10
170.0
 20
-361.3403283333334
 30
0.0
 40
6.515364583333332
  1
4
 41
0.7
 11
170.0
 21
-354.82496375
 31
0.0
100
AcDbText
 73
     3
  0
TEXT
  5
45
330
400
100
AcDbEntity
  8
HIBINO-BASE
 62
     7
100
AcDbText
 10
296.0232400441384
 20
-357.9499683333333
 30
0.0
 40
6.515364583333332
  1
N.Sasaki
 41
0.7
 11
296.0232400441384
 21
-351.43460375
 31
0.0
100
AcDbText
 73
     3
  0
TEXT
  5
46
330
400
100
AcDbEntity
  8
HIBINO-BASE
 62
     7
100
AcDbText
 10
115.5333333333334
 20
-361.500555
 30
0.0
 40
13.03072916666666
  1
A4
 41
0.7
 11
115.5333333333334
 21
-348.4698258333333
 31
0.0
100
AcDbText
 73
     3
  0
TEXT
  5
47
330
400
100
AcDbEntity
  8
HIBINO-BASE
 62
     7
100
AcDbText
 10
103.8333333333333
 20
-339.882375
 30
0.0
 40
6.515364583333332
  1
PAPER SIZE
 41
0.7
 11
103.8333333333333
 21
-333.3670104166666
 31
0.0
100
AcDbText
 73
     3
  0
TEXT
  5
48
330
400
100
AcDbEntity
  8
HIBINO-BASE
 62
     7
100
AcDbText
 10
-231.2639999999999
 20
-395.0392661999998
 30
0.0
 40
14.40017671875
  1
Hibino Corporation
 41
0.7
 11
-231.2639999999999
 21
-380.6390894812498
 31
0.0
100
AcDbText
 73
     3
  0
TEXT
  5
49
330
400
100
AcDbEntity
  8
HIBINO-BASE
 62
     7
100
AcDbText
 10
300.2735600000001
 20
-395.0392661999998
 30
0.0
 40
14.40017671875
  1
ヒビノ株式会社
 41
0.7
 11
300.2735600000001
 21
-380.6390894812498
 31
0.0
100
AcDbText
 73
     3
  0
LINE
  5
4A
330
400
100
AcDbEntity
  8
SPEC
  6
Continuous
 62
     7
100
AcDbLine
 10
-230.0
 20
630.5954449999997
 30
0.0
 11
360.0
 21
630.5954449999997
 31
0.0
  0
LINE
  5
4B
330
400
100
AcDbEntity
  8
SPEC
  6
Continuous
 62
     7
100
AcDbLine
 10
-230.0
 20
615.5954449999998
 30
0.0
 11
360.0
 21
615.5954449999998
 31
0.0
  0
LINE
  5
4C
330
400
100
AcDbEntity
  8
SPEC
  6
Continuous
 62
     7
100
AcDbLine
 10
-230.0
 20
585.5954449999997
 30
0.0
 11
360.0
 21
585.5954449999997
 31
0.0
  0
LINE
  5
4D
330
400
100
AcDbEntity
  8
SPEC
  6
Continuous
 62
     7
100
AcDbLine
 10
-230.0
 20
600.5954449999998
 30
0.0
 11
360.0
 21
600.5954449999998
 31
0.0
  0
LINE
  5
4E
330
400
100
AcDbEntity
  8
SPEC
  6
Continuous
 62
     7
100
AcDbLine
 10
-230.0
 20
480.5954449999999
 30
0.0
 11
360.0
 21
480.5954449999999
 31
0.0
  0
LINE
  5
4F
330
400
100
AcDbEntity
  8
SPEC
  6
Continuous
 62
     7
100
AcDbLine
 10
-230.0
 20
450.5954449999999
 30
0.0
 11
360.0
 21
450.5954449999999
 31
0.0
  0
LINE
  5
50
330
400
100
AcDbEntity
  8
SPEC
  6
Continuous
 62
     7
100
AcDbLine
 10
-230.0
 20
465.5954449999999
 30
0.0
 11
360.0
 21
465.5954449999999
 31
0.0
  0
LINE
  5
51
330
400
100
AcDbEntity
  8
SPEC
  6
Continuous
 62
     7
100
AcDbLine
 10
-230.0
 20
630.5954449999997
 30
0.0
 11
-230.0
 21
450.5954449999999
 31
0.0
  0
TEXT
  5
52
330
400
100
AcDbEntity
  8
SPEC
 62
     7
100
AcDbText
 10
-225.0
 20
636.1685249999998
 30
0.0
 40
9.773046875
  1
仕様
 41
0.7
 11
-225.0
 21
645.9415718749998
 31
0.0
100
AcDbText
 73
     3
  0
LINE
  5
53
330
400
100
AcDbEntity
  8
SPEC
  6
Continuous
 62
     7
100
AcDbLine
 10
-87.50000000000001
 20
630.5954449999997
 30
0.0
 11
-87.50000000000001
 21
450.5954449999999
 31
0.0
  0
LINE
  5
54
330
400
100
AcDbEntity
  8
SPEC
  6
Continuous
 62
     7
100
AcDbLine
 10
360.0
 20
630.5954449999997
 30
0.0
 11
360.0
 21
450.5954449999999
 31
0.0
  0
LINE
  5
55
330
400
100
AcDbEntity
  8
SPEC
  6
Continuous
 62
     7
100
AcDbLine
 10
-118.75
 20
570.5954449999998
 30
0.0
 11
360.0
 21
570.5954449999998
 31
0.0
  0
LINE
  5
56
330
400
100
AcDbEntity
  8
SPEC
  6
Continuous
 62
     7
100
AcDbLine
 10
-118.75
 20
540.5954449999999
 30
0.0
 11
360.0
 21
540.5954449999999
 31
0.0
  0
LINE
  5
57
330
400
100
AcDbEntity
  8
SPEC
  6
Continuous
 62
     7
100
AcDbLine
 10
-230.0
 20
555.5954449999999
 30
0.0
 11
360.0
 21
555.5954449999999
 31
0.0
  0
LINE
  5
58
330
400
100
AcDbEntity
  8
SPEC
  6
Continuous
 62
     7
100
AcDbLine
 10
-230.0
 20
525.5954449999999
 30
0.0
 11
360.0
 21
525.5954449999999
 31
0.0
  0
LINE
  5
59
330
400
100
AcDbEntity
  8
SPEC
  6
Continuous
 62
     7
100
AcDbLine
 10
-230.0
 20
510.5954449999999
 30
0.0
 11
360.0
 21
510.5954449999999
 31
0.0
  0
TEXT
  5
5A
330
400
100
AcDbEntity
  8
SPEC
 62
     7
100
AcDbText
 10
-83.9777082492848
 20
499.2110306997289
 30
0.0
 40
7.601225996887502
  1
ねじ止め
 41
0.7
 11
-83.9777082492848
 21
506.8122566966163
 31
0.0
100
AcDbText
 73
     3
  0
TEXT
  5
5B
330
400
100
AcDbEntity
  8
SPEC
 62
     7
100
AcDbText
 10
-229.5860446773719
 20
544.4568277661554
 30
0.0
 40
7.601225996887502
  1
ドライバー構成
 41
0.7
 11
-229.5860446773719
 21
552.0580537630429
 31
0.0
100
AcDbText
 73
     3
  0
TEXT
  5
5C
330
400
100
AcDbEntity
  8
SPEC
 62
     7
100
AcDbText
 10
-226.9828131202156
 20
604.5752660231417
 30
0.0
 40
7.601225996887502
  1
カバレージ角(1～6kHz平均）
 41
0.7
 11
-226.9828131202156
 21
612.1764920200291
 31
0.0
100
AcDbText
 73
     3
  0
TEXT
  5
5D
330
400
100
AcDbEntity
  8
SPEC
 62
     7
100
AcDbText
 10
-226.4
 20
618.7532264231714
 30
0.0
 40
7.601225996887502
  1
周波数レンジ(-10dB)
 41
0.7
 11
-226.4
 21
626.3544524200589
 31
0.0
100
AcDbText
 73
     3
  0
TEXT
  5
5E
330
400
100
AcDbEntity
  8
SPEC
 62
     7
100
AcDbText
 10
-226.5554167625808
 20
499.521866376351
 30
0.0
 40
7.601225996887502
  1
入力端子
 41
0.7
 11
-226.5554167625808
 21
507.1230923732385
 31
0.0
100
AcDbText
 73
     3
  0
TEXT
  5
5F
330
400
100
AcDbEntity
  8
SPEC
 62
     7
100
AcDbText
 10
-226.5942710215449
 20
589.0954606689653
 30
0.0
 40
7.601225996887502
  1
感度(1W、1m)
 41
0.7
 11
-226.5942710215449
 21
596.6966866658529
 31
0.0
100
AcDbText
 73
     3
  0
TEXT
  5
60
330
400
100
AcDbEntity
  8
SPEC
 62
     7
100
AcDbText
 10
-84.41805510330642
 20
544.0828540517324
 30
0.0
 40
7.601225996887502
  1
165mm
 41
0.7
 11
-84.41805510330642
 21
551.68408004862
 31
0.0
100
AcDbText
 73
     3
  0
TEXT
  5
61
330
400
100
AcDbEntity
  8
SPEC
 62
     7
100
AcDbText
 10
-83.90000000000002
 20
604.3378230541398
 30
0.0
 40
7.601225996887502
  1
90゜
 41
0.7
 11
-83.90000000000002
 21
611.9390490510272
 31
0.0
100
AcDbText
 73
     3
  0
TEXT
  5
62
330
400
100
AcDbEntity
  8
SPEC
 62
     7
100
AcDbText
 10
-84.00361104845199
 20
619.0122524880242
 30
0.0
 40
7.601225996887502
  1
70Hz～20kHz
 41
0.7
 11
-84.00361104845199
 21
626.6134784849116
 31
0.0
100
AcDbText
 73
     3
  0
TEXT
  5
63
330
400
100
AcDbEntity
  8
SPEC
 62
     7
100
AcDbText
 10
-83.90000000000002
 20
469.1919934590124
 30
0.0
 40
7.601225996887502
  1
201×123mm
 41
0.7
 11
-83.90000000000002
 21
476.7932194559
 31
0.0
100
AcDbText
 73
     3
  0
TEXT
  5
64
330
400
100
AcDbEntity
  8
SPEC
 62
     7
100
AcDbText
 10
-226.814444626107
 20
469.3934582751038
 30
0.0
 40
7.601225996887502
  1
寸法(φ×H)
 41
0.7
 11
-226.814444626107
 21
476.9946842719912
 31
0.0
100
AcDbText
 73
     3
  0
TEXT
  5
65
330
400
100
AcDbEntity
  8
SPEC
 62
     7
100
AcDbText
 10
-83.79638896081166
 20
589.1084126591009
 30
0.0
 40
7.601225996887502
  1
89dB SPL
 41
0.7
 11
-83.79638896081166
 21
596.7096386559884
 31
0.0
100
AcDbText
 73
     3
  0
TEXT
  5
66
330
400
100
AcDbEntity
  8
SPEC
 62
     7
100
AcDbText
 10
-229.6637532786739
 20
574.3202277972982
 30
0.0
 40
7.601225996887502
  1
トランス・タップ
 41
0.7
 11
-229.6637532786739
 21
581.9214537941856
 31
0.0
100
AcDbText
 73
     3
  0
TEXT
  5
67
330
400
100
AcDbEntity
  8
SPEC
 62
     7
100
AcDbText
 10
-83.95180551650636
 20
574.2684217342421
 30
0.0
 40
7.601225996887502
  1
60W、30W、15W
 41
0.7
 11
-83.95180551650636
 21
581.8696477311296
 31
0.0
100
AcDbText
 73
     3
  0
TEXT
  5
68
330
400
100
AcDbEntity
  8
SPEC
 62
     7
100
AcDbText
 10
-83.90000000000002
 20
559.7142563162472
 30
0.0
 40
7.601225996887502
  1
60W、30W、15W、7.5W
 41
0.7
 11
-83.90000000000002
 21
567.3154823131348
 31
0.0
100
AcDbText
 73
     3
  0
TEXT
  5
69
330
400
100
AcDbEntity
  8
SPEC
 62
     7
100
AcDbText
 10
-84.05541649856955
 20
484.5702692370416
 30
0.0
 40
7.601225996887502
  1
黒
 41
0.7
 11
-84.05541649856955
 21
492.171495233929
 31
0.0
100
AcDbText
 73
     3
  0
TEXT
  5
6A
330
400
100
AcDbEntity
  8
SPEC
 62
     7
100
AcDbText
 10
-226.4
 20
484.6997842950986
 30
0.0
 40
7.601225996887502
  1
色
 41
0.7
 11
-226.4
 21
492.301010291986
 31
0.0
100
AcDbText
 73
     3
  0
TEXT
  5
6B
330
400
100
AcDbEntity
  8
SPEC
 62
     7
100
AcDbText
 10
-226.6590278758776
 20
454.3483952202152
 30
0.0
 40
7.601225996887502
  1
質量
 41
0.7
 11
-226.6590278758776
 21
461.9496212171028
 31
0.0
100
AcDbText
 73
     3
  0
TEXT
  5
6C
330
400
100
AcDbEntity
  8
SPEC
 62
     7
100
AcDbText
 10
-84.08419730419046
 20
454.388684952991
 30
0.0
 40
7.601225996887502
  1
2.0kg
 41
0.7
 11
-84.08419730419046
 21
461.9899109498785
 31
0.0
100
AcDbText
 73
     3
  0
TEXT
  5
6D
330
400
100
AcDbEntity
  8
SPEC
 62
     7
100
AcDbText
 10
-227.0216670873773
 20
514.4197438950027
 30
0.0
 40
7.601258680555555
  1
クロスオーバー周波数
 41
0.7
 11
-227.0216670873773
 21
522.0210025755583
 31
0.0
100
AcDbText
 73
     3
  0
TEXT
  5
6E
330
400
100
AcDbEntity
  8
SPEC
 62
     7
100
AcDbText
 10
-83.79638899169012
 20
514.1607162422221
 30
0.0
 40
7.601258680555555
  1
3.5kHz
 41
0.7
 11
-83.79638899169012
 21
521.7619749227777
 31
0.0
100
AcDbText
 73
     3
  0
LINE
  5
6F
330
400
100
AcDbEntity
  8
SPEC
  6
Continuous
 62
     7
100
AcDbLine
 10
-230.0
 20
495.5954449999999
 30
0.0
 11
360.0
 21
495.5954449999999
 31
0.0
  0
TEXT
  5
70
330
400
100
AcDbEntity
  8
SPEC
 62
     7
100
AcDbText
 10
-115.6601289888502
 20
574.2280965819384
 30
0.0
 40
7.601225996887502
  1
100V
 41
0.7
 11
-115.6601289888502
 21
581.8293225788258
 31
0.0
100
AcDbText
 73
     3
  0
TEXT
  5
71
330
400
100
AcDbEntity
  8
SPEC
 62
     7
100
AcDbText
 10
-115.2845386274967
 20
559.4667082364086
 30
0.0
 40
7.601225996887502
  1
70V
 41
0.7
 11
-115.2845386274967
 21
567.067934233296
 31
0.0
100
AcDbText
 73
     3
  0
LINE
  5
72
330
400
100
AcDbEntity
  8
SPEC
  6
Continuous
 62
     7
100
AcDbLine
 10
-118.75
 20
585.5954449999997
 30
0.0
 11
-118.75
 21
525.5954449999999
 31
0.0
  0
TEXT
  5
73
330
400
100
AcDbEntity
  8
SPEC
 62
     7
100
AcDbText
 10
-84.35166260839437
 20
529.5750082168549
 30
0.0
 40
7.601225996887502
  1
19mm
 41
0.7
 11
-84.35166260839437
 21
537.1762342137424
 31
0.0
100
AcDbText
 73
     3
  0
TEXT
  5
74
330
400
100
AcDbEntity
  8
SPEC
 62
     7
100
AcDbText
 10
-115.0650444826596
 20
544.186084234961
 30
0.0
 40
7.601225996887502
  1
LF
 41
0.7
 11
-115.0650444826596
 21
551.7873102318485
 31
0.0
100
AcDbText
 73
     3
  0
TEXT
  5
75
330
400
100
AcDbEntity
  8
SPEC
 62
     7
100
AcDbText
 10
-115.0261900326358
 20
529.6268140575853
 30
0.0
 40
7.601225996887502
  1
HF
 41
0.7
 11
-115.0261900326358
 21
537.2280400544727
 31
0.0
100
AcDbText
 73
     3
  0
LINE
  5
76
330
400
100
AcDbEntity
  8
DIMNSIONS
  6
Continuous
 62
     7
100
AcDbLine
 10
-35.12295282613435
 20
-29.46609857664194
 30
0.0
 11
-112.9513799508805
 21
48.36232854810425
 31
0.0
  0
LINE
  5
77
330
400
100
AcDbEntity
  8
DIMNSIONS
  6
Continuous
 62
     7
100
AcDbLine
 10
-170.5339014233582
 20
-164.8770471738657
 30
0.0
 11
-248.3623285481044
 21
-87.04862004911955
 31
0.0
  0
LINE
  5
78
330
400
100
AcDbEntity
  8
DIMNSIONS
  6
Continuous
 62
     7
100
AcDbLine
 10
-107.2945257013881
 20
42.70547429861188
 30
0.0
 11
-242.705474298612
 21
-92.70547429861194
 31
0.0
  0
LINE
  5
79
330
400
100
AcDbEntity
  8
DIMNSIONS
  6
Continuous
 62
     7
100
AcDbLine
 10
-107.2945257013881
 20
42.70547429861188
 30
0.0
 11
-112.4721956436046
 21
33.73748689387077
 31
0.0
  0
LINE
  5
7A
330
400
100
AcDbEntity
  8
DIMNSIONS
  6
Continuous
 62
     7
100
AcDbLine
 10
-107.2945257013881
 20
42.70547429861188
 30
0.0
 11
-116.2625131061292
 21
37.52780435639542
 31
0.0
  0
LINE
  5
7B
330
400
100
AcDbEntity
  8
DIMNSIONS
  6
Continuous
 62
     7
100
AcDbLine
 10
-242.705474298612
 20
-92.70547429861194
 30
0.0
 11
-237.3720799794944
 21
-83.82921556201965
 31
0.0
  0
LINE
  5
7C
330
400
100
AcDbEntity
  8
DIMNSIONS
  6
Continuous
 62
     7
100
AcDbLine
 10
-242.705474298612
 20
-92.70547429861194
 30
0.0
 11
-233.6484899615604
 21
-87.68510590171826
 31
0.0
  0
TEXT
  5
7D
330
400
100
AcDbEntity
  8
DIMNSIONS
 62
     7
100
AcDbText
 10
-185.2946890598748
 20
-29.67240447524045
 30
0.0
 40
10.85894097222222
  1
192
 50
44.99999999999997
 41
0.7
 11
-192.9731198578376
 21
-21.99397367727767
 31
0.0
100
AcDbText
 73
     3
  0
LINE
  5
7E
330
400
100
AcDbEntity
  8
DIMNSIONS
  6
Continuous
 62
     7
100
AcDbLine
 10
37.5
 20
-204.25
 30
0.0
 11
37.5
 21
-220.5
 31
0.0
  0
LINE
  5
7F
330
400
100
AcDbEntity
  8
DIMNSIONS
  6
Continuous
 62
     7
100
AcDbLine
 10
160.0
 20
-123.25
 30
0.0
 11
160.0
 21
-220.5
 31
0.0
  0
LINE
  5
80
330
400
100
AcDbEntity
  8
DIMNSIONS
  6
Continuous
 62
     7
100
AcDbLine
 10
37.5
 20
-212.5
 30
0.0
 11
160.0
 21
-212.5
 31
0.0
  0
LINE
  5
81
330
400
100
AcDbEntity
  8
DIMNSIONS
  6
Continuous
 62
     7
100
AcDbLine
 10
37.5
 20
-212.5
 30
0.0
 11
47.502490234375
 21
-209.819840819399
 31
0.0
  0
LINE
  5
82
330
400
100
AcDbEntity
  8
DIMNSIONS
  6
Continuous
 62
     7
100
AcDbLine
 10
37.5
 20
-212.5
 30
0.0
 11
47.502490234375
 21
-215.180159180601
 31
0.0
  0
LINE
  5
83
330
400
100
AcDbEntity
  8
DIMNSIONS
  6
Continuous
 62
     7
100
AcDbLine
 10
160.0
 20
-212.5
 30
0.0
 11
149.997509765625
 21
-215.180159180601
 31
0.0
  0
LINE
  5
84
330
400
100
AcDbEntity
  8
DIMNSIONS
  6
Continuous
 62
     7
100
AcDbLine
 10
160.0
 20
-212.5
 30
0.0
 11
149.997509765625
 21
-209.819840819399
 31
0.0
  0
TEXT
  5
85
330
400
100
AcDbEntity
  8
DIMNSIONS
 62
     7
100
AcDbText
 10
88.16666666666668
 20
-208.5244444444445
 30
0.0
 40
10.85894097222222
  1
123
 41
0.7
 11
88.16666666666668
 21
-197.6655034722223
 31
0.0
100
AcDbText
 73
     3
  0
LINE
  5
86
330
400
100
AcDbEntity
  8
DIMNSIONS
  6
Continuous
 62
     7
100
AcDbLine
 10
33.5
 20
-200.25
 30
0.0
 11
17.0
 21
-200.25
 31
0.0
  0
LINE
  5
87
330
400
100
AcDbEntity
  8
DIMNSIONS
  6
Continuous
 62
     7
100
AcDbLine
 10
33.5
 20
0.25
 30
0.0
 11
17.0
 21
0.25
 31
0.0
  0
LINE
  5
88
330
400
100
AcDbEntity
  8
DIMNSIONS
  6
Continuous
 62
     7
100
AcDbLine
 10
25.0
 20
-200.25
 30
0.0
 11
25.0
 21
0.25
 31
0.0
  0
LINE
  5
89
330
400
100
AcDbEntity
  8
DIMNSIONS
  6
Continuous
 62
     7
100
AcDbLine
 10
25.0
 20
-200.25
 30
0.0
 11
22.31984081939904
 21
-190.247509765625
 31
0.0
  0
LINE
  5
8A
330
400
100
AcDbEntity
  8
DIMNSIONS
  6
Continuous
 62
     7
100
AcDbLine
 10
25.0
 20
-200.25
 30
0.0
 11
27.68015918060097
 21
-190.247509765625
 31
0.0
  0
LINE
  5
8B
330
400
100
AcDbEntity
  8
DIMNSIONS
  6
Continuous
 62
     7
100
AcDbLine
 10
25.0
 20
0.25
 30
0.0
 11
27.68015918060097
 21
-9.752490234374988
 31
0.0
  0
LINE
  5
8C
330
400
100
AcDbEntity
  8
DIMNSIONS
  6
Continuous
 62
     7
100
AcDbLine
 10
25.0
 20
0.25
 30
0.0
 11
22.31984081939904
 21
-9.752490234374988
 31
0.0
  0
TEXT
  5
8D
330
400
100
AcDbEntity
  8
DIMNSIONS
 62
     7
100
AcDbText
 10
21.02444444444444
 20
-110.5833333333333
 30
0.0
 40
10.85894097222222
  1
201
 50
90.0
 41
0.7
 11
10.16550347222221
 21
-110.5833333333333
 31
0.0
100
AcDbText
 73
     3
  0
LINE
  5
8E
330
400
100
AcDbEntity
  8
DIMNSIONS
  6
Continuous
 62
     7
100
AcDbLine
 10
115.0
 20
-10.25
 30
0.0
 11
195.5
 21
-10.25
 31
0.0
  0
LINE
  5
8F
330
400
100
AcDbEntity
  8
DIMNSIONS
  6
Continuous
 62
     7
100
AcDbLine
 10
115.0
 20
-189.75
 30
0.0
 11
195.5
 21
-189.75
 31
0.0
  0
LINE
  5
90
330
400
100
AcDbEntity
  8
DIMNSIONS
  6
Continuous
 62
     7
100
AcDbLine
 10
187.5
 20
-10.25
 30
0.0
 11
187.5
 21
-189.75
 31
0.0
  0
LINE
  5
91
330
400
100
AcDbEntity
  8
DIMNSIONS
  6
Continuous
 62
     7
100
AcDbLine
 10
187.5
 20
-10.25
 30
0.0
 11
190.180159180601
 21
-20.25249023437499
 31
0.0
  0
LINE
  5
92
330
400
100
AcDbEntity
  8
DIMNSIONS
  6
Continuous
 62
     7
100
AcDbLine
 10
187.5
 20
-10.25
 30
0.0
 11
184.819840819399
 21
-20.25249023437499
 31
0.0
  0
LINE
  5
93
330
400
100
AcDbEntity
  8
DIMNSIONS
  6
Continuous
 62
     7
100
AcDbLine
 10
187.5
 20
-189.75
 30
0.0
 11
184.819840819399
 21
-179.747509765625
 31
0.0
  0
LINE
  5
94
330
400
100
AcDbEntity
  8
DIMNSIONS
  6
Continuous
 62
     7
100
AcDbLine
 10
187.5
 20
-189.75
 30
0.0
 11
190.180159180601
 21
-179.747509765625
 31
0.0
  0
TEXT
  5
95
330
400
100
AcDbEntity
  8
DIMNSIONS
 62
     7
100
AcDbText
 10
183.5244444444444
 20
-110.5833333333333
 30
0.0
 40
10.85894097222222
  1
180
 50
90.0
 41
0.7
 11
172.6655034722222
 21
-110.5833333333333
 31
0.0
100
AcDbText
 73
     3
  0
LINE
  5
96
330
400
100
AcDbEntity
  8
DIMNSIONS
  6
Continuous
 62
     7
100
AcDbLine
 10
-24.88401277132123
 20
-27.7124398960674
 30
0.0
 11
-11.67893218813435
 21
-14.50735931288079
 31
0.0
  0
LINE
  5
97
330
400
100
AcDbEntity
  8
DIMNSIONS
  6
Continuous
 62
     7
100
AcDbLine
 10
-27.71243989606721
 20
-24.88401277132135
 30
0.0
 11
-14.50735931288034
 21
-11.67893218813475
 31
0.0
  0
LINE
  5
98
330
400
100
AcDbEntity
  8
DIMNSIONS
  6
Continuous
 62
     7
100
AcDbLine
 10
-20.16421356237279
 20
-17.33578643762706
 30
0.0
 11
-17.33578643762679
 21
-20.16421356237311
 31
0.0
  0
LINE
  5
99
330
400
100
AcDbEntity
  8
DIMNSIONS
  6
Continuous
 62
     7
100
AcDbLine
 10
-17.33578643762679
 20
-20.16421356237311
 30
0.0
 11
-7.436291501015233
 21
-30.06370849898488
 31
0.0
  0
LINE
  5
9A
330
400
100
AcDbEntity
  8
DIMNSIONS
  6
Continuous
 62
     7
100
AcDbLine
 10
-17.33578643762679
 20
-20.16421356237311
 30
0.0
 11
-8.367799032885685
 21
-25.34188350458956
 31
0.0
  0
LINE
  5
9B
330
400
100
AcDbEntity
  8
DIMNSIONS
  6
Continuous
 62
     7
100
AcDbLine
 10
-17.33578643762679
 20
-20.16421356237311
 30
0.0
 11
-12.15811649541034
 21
-29.13220096711421
 31
0.0
  0
LINE
  5
9C
330
400
100
AcDbEntity
  8
DIMNSIONS
  6
Continuous
 62
     7
100
AcDbLine
 10
-20.16421356237279
 20
-17.33578643762706
 30
0.0
 11
-29.98903117837157
 21
-7.510968821628067
 31
0.0
  0
LINE
  5
9D
330
400
100
AcDbEntity
  8
DIMNSIONS
  6
Continuous
 62
     7
100
AcDbLine
 10
-20.16421356237279
 20
-17.33578643762706
 30
0.0
 11
-29.04047229896504
 21
-12.00239211850945
 31
0.0
  0
LINE
  5
9E
330
400
100
AcDbEntity
  8
DIMNSIONS
  6
Continuous
 62
     7
100
AcDbLine
 10
-20.16421356237279
 20
-17.33578643762706
 30
0.0
 11
-25.18458195926644
 21
-8.278802100575461
 31
0.0
  0
TEXT
  5
9F
330
400
100
AcDbEntity
  8
DIMNSIONS
 62
     7
100
AcDbText
 10
-27.17788888605437
 20
-4.699826529310906
 30
0.0
 40
10.85894097222222
  1
4
 50
314.9999999999995
 41
0.7
 11
-19.49945808809151
 21
2.978604268651792
 31
0.0
100
AcDbText
 73
     3
  0
TEXT
  5
A0
330
400
100
AcDbEntity
  8
DIMNSIONS
 62
     7
100
AcDbText
 10
19.99999999999998
 20
-320.3265949999999
 30
0.0
 40
9.773046875
  1
(単位：mm)
 41
0.7
 11
19.99999999999998
 21
-310.5535481249999
 31
0.0
100
AcDbText
 73
     3
  0
TEXT
  5
A1
330
400
100
AcDbEntity
  8
DIMNSIONS
 62
     7
100
AcDbText
 10
125.0
 20
-267.5800000000001
 30
0.0
 40
10.85894097222222
  1
※ センタ ー振り分け
 41
0.7
 11
125.0
 21
-256.7210590277778
 31
0.0
100
AcDbText
 73
     3
  0
TEXT
  5
A2
330
400
100
AcDbEntity
  8
DIMNSIONS
 62
     7
100
AcDbText
 10
174.9448888888889
 20
-89.41666666666666
 30
0.0
 40
7.601258680555555
  1
※
 50
90.0
 41
0.7
 11
167.3436302083333
 21
-89.41666666666666
 31
0.0
100
AcDbText
 73
     3
  0
LINE
  5
A3
330
400
100
AcDbEntity
  8
DIMNSIONS
  6
Continuous
 62
     7
100
AcDbLine
 10
-51.31429614934218
 20
-187.6342669311841
 30
0.0
 11
-37.50000000000002
 21
-212.5
 31
0.0
  0
LINE
  5
A4
330
400
100
AcDbEntity
  8
DIMNSIONS
  6
Continuous
 62
     7
100
AcDbLine
 10
-51.31429614934218
 20
-187.6342669311841
 30
0.0
 11
-43.99196509556815
 21
-194.9565979849581
 31
0.0
  0
LINE
  5
A5
330
400
100
AcDbEntity
  8
DIMNSIONS
  6
Continuous
 62
     7
100
AcDbLine
 10
-51.31429614934218
 20
-187.6342669311841
 30
0.0
 11
-48.63413696874121
 21
-197.6367571655591
 31
0.0
  0
LINE
  5
A6
330
400
100
AcDbEntity
  8
DIMNSIONS
  6
Continuous
 62
     7
100
AcDbLine
 10
-37.50000000000002
 20
-212.5
 30
0.0
 11
-29.50000000000001
 21
-212.5
 31
0.0
  0
TEXT
  5
A7
330
400
100
AcDbEntity
  8
DIMNSIONS
 62
     7
100
AcDbText
 10
-29.50000000000001
 20
-217.5800000000001
 30
0.0
 40
10.85894097222222
  1
φ201
 41
0.7
 11
-29.50000000000001
 21
-206.7210590277778
 31
0.0
100
AcDbText
 73
     3
  0
ARC
  5
A8
330
400
100
AcDbEntity
  8
DATA
  6
Continuous
 62
     7
100
AcDbCircle
 10
300.0
 20
-100.0
 30
0.0
 40
3.999999999999992
100
AcDbArc
 50
202.3437939181745
 51
215.9944492168363
  0
ARC
  5
A9
330
400
100
AcDbEntity
  8
DATA
  6
Continuous
 62
     7
100
AcDbCircle
 10
300.0
 20
-100.0
 30
0.0
 40
3.999999999999992
100
AcDbArc
 50
245.2620623849151
 51
172.2764471338117
  0
LINE
  5
AA
330
400
100
AcDbEntity
  8
DATA
  6
Continuous
 62
     7
100
AcDbLine
 10
237.9546168191244
 20
-60.61293379862588
 30
0.0
 11
286.202271803598
 21
-31.21201904246226
 31
0.0
  0
LINE
  5
AB
330
400
100
AcDbEntity
  8
DATA
  6
Continuous
 62
     7
100
AcDbLine
 10
279.9579510035467
 20
-20.96492849878837
 30
0.0
 11
286.202271803598
 21
-31.21201904246226
 31
0.0
  0
LINE
  5
AC
330
400
100
AcDbEntity
  8
DATA
  6
Continuous
 62
     7
100
AcDbLine
 10
231.7102960190731
 20
-50.36584325495196
 30
0.0
 11
279.9579510035467
 21
-20.96492849878837
 31
0.0
  0
LINE
  5
AD
330
400
100
AcDbEntity
  8
DATA
  6
Continuous
 62
     7
100
AcDbLine
 10
231.7102960190731
 20
-50.36584325495196
 30
0.0
 11
237.9546168191244
 21
-60.61293379862588
 31
0.0
  0
LINE
  5
AE
330
400
100
AcDbEntity
  8
DATA
  6
Continuous
 62
     7
100
AcDbLine
 10
243.6120554418886
 20
-47.79728311707542
 30
0.0
 11
247.7749359752562
 21
-54.62867681285803
 31
0.0
  0
LINE
  5
AF
330
400
100
AcDbEntity
  8
DATA
  6
Continuous
 62
     7
100
AcDbLine
 10
242.3311442476105
 20
-48.57783837608863
 30
0.0
 11
246.4940247809781
 21
-55.40923207187126
 31
0.0
  0
LINE
  5
B0
330
400
100
AcDbEntity
  8
DATA
  6
Continuous
 62
     7
100
AcDbLine
 10
235.8944645194841
 20
-57.18426459581744
 30
0.0
 11
284.1421195039578
 21
-27.78334983965385
 31
0.0
  0
LINE
  5
B1
330
400
100
AcDbEntity
  8
DATA
  6
Continuous
 62
     7
100
AcDbLine
 10
233.8343122198439
 20
-53.75559539300896
 30
0.0
 11
282.0819672043175
 21
-24.35468063684539
 31
0.0
  0
LINE
  5
B2
330
400
100
AcDbEntity
  8
DATA
  6
Continuous
 62
     7
100
AcDbLine
 10
275.6348352988401
 20
-28.28340164174563
 30
0.0
 11
279.7977158322078
 21
-35.11479533752822
 31
0.0
  0
LINE
  5
B3
330
400
100
AcDbEntity
  8
DATA
  6
Continuous
 62
     7
100
AcDbLine
 10
269.2302793274499
 20
-32.18617793681159
 30
0.0
 11
273.3931598608174
 21
-39.01757163259424
 31
0.0
  0
LINE
  5
B4
330
400
100
AcDbEntity
  8
DATA
  6
Continuous
 62
     7
100
AcDbLine
 10
262.8257233560596
 20
-36.08895423187755
 30
0.0
 11
266.9886038894271
 21
-42.9203479276602
 31
0.0
  0
LINE
  5
B5
330
400
100
AcDbEntity
  8
DATA
  6
Continuous
 62
     7
100
AcDbLine
 10
256.4211673846692
 20
-39.99173052694351
 30
0.0
 11
260.5840479180368
 21
-46.82312422272617
 31
0.0
  0
LINE
  5
B6
330
400
100
AcDbEntity
  8
DATA
  6
Continuous
 62
     7
100
AcDbLine
 10
250.0166114132789
 20
-43.89450682200947
 30
0.0
 11
254.1794919466465
 21
-50.7259005177921
 31
0.0
  0
TEXT
  5
B7
330
400
100
AcDbEntity
  8
DATA
 62
     7
100
AcDbText
 10
283.7789319433573
 20
-29.15692648251362
 30
0.0
 40
2.171788194444444
  1
7.5W
 50
211.3570852240099
 41
0.7
 11
284.9090657411149
 21
-31.01150502242351
 31
0.0
100
AcDbText
 73
     3
  0
TEXT
  5
B8
330
400
100
AcDbEntity
  8
DATA
 62
     7
100
AcDbText
 10
277.1333749028213
 20
-33.20656280409022
 30
0.0
 40
2.171788194444444
  1
15W
 50
211.3570852240099
 41
0.7
 11
278.263508700579
 21
-35.06114134400011
 31
0.0
100
AcDbText
 73
     3
  0
TEXT
  5
B9
330
400
100
AcDbEntity
  8
DATA
 62
     7
100
AcDbText
 10
270.7288189314311
 20
-37.10933909915616
 30
0.0
 40
2.171788194444444
  1
30W
 50
211.3570852240099
 41
0.7
 11
271.8589527291887
 21
-38.96391763906604
 31
0.0
100
AcDbText
 73
     3
  0
TEXT
  5
BA
330
400
100
AcDbEntity
  8
DATA
 62
     7
100
AcDbText
 10
264.3242629600408
 20
-41.01211539422211
 30
0.0
 40
2.171788194444444
  1
60W
 50
211.3570852240099
 41
0.7
 11
265.4543967577984
 21
-42.866693934132
 31
0.0
100
AcDbText
 73
     3
  0
TEXT
  5
BB
330
400
100
AcDbEntity
  8
DATA
 62
     7
100
AcDbText
 10
251.9610029951796
 20
-48.54597693530936
 30
0.0
 40
2.171788194444444
  1
COM
 50
211.3570852240099
 41
0.7
 11
253.0911367929372
 21
-50.40055547521925
 31
0.0
100
AcDbText
 73
     3
  0
TEXT
  5
BC
330
400
100
AcDbEntity
  8
DATA
 62
     7
100
AcDbText
 10
242.62970726833
 20
-54.23223526885834
 30
0.0
 40
2.171788194444444
  1
70V
 50
211.3570852240099
 41
0.7
 11
243.7598410660875
 21
-56.08681380876823
 31
0.0
100
AcDbText
 73
     3
  0
TEXT
  5
BD
330
400
100
AcDbEntity
  8
DATA
 62
     7
100
AcDbText
 10
281.4777785745714
 20
-25.87511730621577
 30
0.0
 40
2.171788194444444
  1
15W
 50
211.3570852240099
 41
0.7
 11
282.607912372329
 21
-27.72969584612565
 31
0.0
100
AcDbText
 73
     3
  0
TEXT
  5
BE
330
400
100
AcDbEntity
  8
DATA
 62
     7
100
AcDbText
 10
275.0732226031811
 20
-29.7778936012817
 30
0.0
 40
2.171788194444444
  1
30W
 50
211.3570852240099
 41
0.7
 11
276.2033564009387
 21
-31.63247214119159
 31
0.0
100
AcDbText
 73
     3
  0
TEXT
  5
BF
330
400
100
AcDbEntity
  8
DATA
 62
     7
100
AcDbText
 10
268.6686666317908
 20
-33.68066989634766
 30
0.0
 40
2.171788194444444
  1
60W
 50
211.3570852240099
 41
0.7
 11
269.7988004295484
 21
-35.53524843625755
 31
0.0
100
AcDbText
 73
     3
  0
TEXT
  5
C0
330
400
100
AcDbEntity
  8
DATA
 62
     7
100
AcDbText
 10
262.3002608207724
 20
-37.56141718743702
 30
0.0
 40
2.171788194444444
  1
N/A
 50
211.3570852240099
 41
0.7
 11
263.43039461853
 21
-39.4159957273469
 31
0.0
100
AcDbText
 73
     3
  0
TEXT
  5
C1
330
400
100
AcDbEntity
  8
DATA
 62
     7
100
AcDbText
 10
249.9008506955394
 20
-45.1173077325009
 30
0.0
 40
2.171788194444444
  1
COM
 50
211.3570852240099
 41
0.7
 11
251.030984493297
 21
-46.97188627241079
 31
0.0
100
AcDbText
 73
     3
  0
TEXT
  5
C2
330
400
100
AcDbEntity
  8
DATA
 62
     7
100
AcDbText
 10
241.1720576415538
 20
-50.43641599977328
 30
0.0
 40
2.171788194444444
  1
100V
 50
211.3570852240099
 41
0.7
 11
242.3021914393114
 21
-52.29099453968316
 31
0.0
100
AcDbText
 73
     3
  0
TEXT
  5
C3
330
400
100
AcDbEntity
  8
DATA
 62
     7
100
AcDbText
 10
265.2802568648395
 20
-31.06140758768194
 30
0.0
 40
2.171788194444444
  1
HOOKUP CHART
 50
211.3570852240099
 41
0.7
 11
266.4103906625971
 21
-32.91598612759182
 31
0.0
100
AcDbText
 73
     3
  0
LINE
  5
C4
330
400
100
AcDbEntity
  8
DATA
  6
Continuous
 62
     7
100
AcDbLine
 10
246.7750056124095
 20
-55.63357531693583
 30
0.0
 11
285.2023414407512
 21
-32.21691754654006
 31
0.0
  0
CIRCLE
  5
C5
330
400
100
AcDbEntity
  8
DATA
  6
Continuous
 62
     7
100
AcDbCircle
 10
284.5752538296063
 20
-38.45414219758359
 30
0.0
 40
2.0
  0
CIRCLE
  5
C6
330
400
100
AcDbEntity
  8
DATA
  6
Continuous
 62
     7
100
AcDbCircle
 10
278.170697858216
 20
-42.35691849264958
 30
0.0
 40
2.000000000000056
  0
CIRCLE
  5
C7
330
400
100
AcDbEntity
  8
DATA
  6
Continuous
 62
     7
100
AcDbCircle
 10
271.7661418868257
 20
-46.25969478771554
 30
0.0
 40
2.000000000000028
  0
CIRCLE
  5
C8
330
400
100
AcDbEntity
  8
DATA
  6
Continuous
 62
     7
100
AcDbCircle
 10
265.3615859154355
 20
-50.1624710827815
 30
0.0
 40
2.000000000000028
  0
CIRCLE
  5
C9
330
400
100
AcDbEntity
  8
DATA
  6
Continuous
 62
     7
100
AcDbCircle
 10
258.9570299440452
 20
-54.06524737784747
 30
0.0
 40
2.0
  0
CIRCLE
  5
CA
330
400
100
AcDbEntity
  8
DATA
  6
Continuous
 62
     7
100
AcDbCircle
 10
252.5524739726549
 20
-57.96802367291342
 30
0.0
 40
1.999999999999971
  0
LINE
  5
CB
330
400
100
AcDbEntity
  8
DATA
  6
Continuous
 62
     7
100
AcDbLine
 10
252.1347142991201
 20
-64.42899470025588
 30
0.0
 11
246.7750056124095
 21
-55.63357531693583
 31
0.0
  0
LINE
  5
CC
330
400
100
AcDbEntity
  8
DATA
  6
Continuous
 62
     7
100
AcDbLine
 10
252.079897783983
 20
-64.4623985141676
 30
0.0
 11
290.5072336123248
 21
-41.04574074377183
 31
0.0
  0
LINE
  5
CD
330
400
100
AcDbEntity
  8
DATA
  6
Continuous
 62
     7
100
AcDbLine
 10
285.1475249256142
 20
-32.25032136045172
 30
0.0
 11
290.5072336123248
 21
-41.04574074377183
 31
0.0
  0
LINE
  5
CE
330
400
100
AcDbEntity
  8
DATA
  6
Continuous
 62
     7
100
AcDbLine
 10
247.8050817622293
 20
-57.34790991833973
 30
0.0
 11
286.2324175905714
 21
-33.93125214794435
 31
0.0
  0
LINE
  5
CF
330
400
100
AcDbEntity
  8
DATA
  6
Continuous
 62
     7
100
AcDbLine
 10
250.8953102116897
 20
-62.49091372255242
 30
0.0
 11
289.3226460400317
 21
-39.07425595215698
 31
0.0
  0
LINE
  5
D0
330
400
100
AcDbEntity
  8
DATA
  6
Continuous
 62
     7
100
AcDbLine
 10
285.6704747304378
 20
-42.23661274602108
 30
0.0
 11
286.4510148304442
 21
-43.51749906398026
 31
0.0
  0
LINE
  5
D1
330
400
100
AcDbEntity
  8
DATA
  6
Continuous
 62
     7
100
AcDbLine
 10
285.6704747304378
 20
-42.23661274602108
 30
0.0
 11
287.3783563228086
 21
-41.19587240067017
 31
0.0
  0
LINE
  5
D2
330
400
100
AcDbEntity
  8
DATA
  6
Continuous
 62
     7
100
AcDbLine
 10
287.3783563228086
 20
-41.19587240067017
 30
0.0
 11
288.158896422815
 21
-42.47675871862936
 31
0.0
  0
LINE
  5
D3
330
400
100
AcDbEntity
  8
DATA
  6
Continuous
 62
     7
100
AcDbLine
 10
279.2659187590476
 20
-46.13938904108698
 30
0.0
 11
280.046458859054
 21
-47.42027535904623
 31
0.0
  0
LINE
  5
D4
330
400
100
AcDbEntity
  8
DATA
  6
Continuous
 62
     7
100
AcDbLine
 10
279.2659187590476
 20
-46.13938904108698
 30
0.0
 11
280.9738003514183
 21
-45.09864869573607
 31
0.0
  0
LINE
  5
D5
330
400
100
AcDbEntity
  8
DATA
  6
Continuous
 62
     7
100
AcDbLine
 10
280.9738003514183
 20
-45.09864869573607
 30
0.0
 11
281.7543404514247
 21
-46.37953501369532
 31
0.0
  0
LINE
  5
D6
330
400
100
AcDbEntity
  8
DATA
  6
Continuous
 62
     7
100
AcDbLine
 10
272.8613627876573
 20
-50.04216533615295
 30
0.0
 11
273.6419028876637
 21
-51.32305165411218
 31
0.0
  0
LINE
  5
D7
330
400
100
AcDbEntity
  8
DATA
  6
Continuous
 62
     7
100
AcDbLine
 10
272.8613627876573
 20
-50.04216533615295
 30
0.0
 11
274.569244380028
 21
-49.00142499080204
 31
0.0
  0
LINE
  5
D8
330
400
100
AcDbEntity
  8
DATA
  6
Continuous
 62
     7
100
AcDbLine
 10
274.569244380028
 20
-49.00142499080204
 30
0.0
 11
275.3497844800344
 21
-50.28231130876128
 31
0.0
  0
LINE
  5
D9
330
400
100
AcDbEntity
  8
DATA
  6
Continuous
 62
     7
100
AcDbLine
 10
266.456806816267
 20
-53.94494163121897
 30
0.0
 11
267.2373469162733
 21
-55.22582794917815
 31
0.0
  0
LINE
  5
DA
330
400
100
AcDbEntity
  8
DATA
  6
Continuous
 62
     7
100
AcDbLine
 10
266.456806816267
 20
-53.94494163121897
 30
0.0
 11
268.1646884086377
 21
-52.90420128586802
 31
0.0
  0
LINE
  5
DB
330
400
100
AcDbEntity
  8
DATA
  6
Continuous
 62
     7
100
AcDbLine
 10
268.1646884086377
 20
-52.90420128586802
 30
0.0
 11
268.9452285086441
 21
-54.1850876038273
 31
0.0
  0
LINE
  5
DC
330
400
100
AcDbEntity
  8
DATA
  6
Continuous
 62
     7
100
AcDbLine
 10
260.0522508448766
 20
-57.84771792628493
 30
0.0
 11
260.8327909448831
 21
-59.12860424424412
 31
0.0
  0
LINE
  5
DD
330
400
100
AcDbEntity
  8
DATA
  6
Continuous
 62
     7
100
AcDbLine
 10
260.0522508448766
 20
-57.84771792628493
 30
0.0
 11
261.7601324372474
 21
-56.80697758093399
 31
0.0
  0
LINE
  5
DE
330
400
100
AcDbEntity
  8
DATA
  6
Continuous
 62
     7
100
AcDbLine
 10
261.7601324372474
 20
-56.80697758093399
 30
0.0
 11
262.5406725372538
 21
-58.0878638988932
 31
0.0
  0
LINE
  5
DF
330
400
100
AcDbEntity
  8
DATA
  6
Continuous
 62
     7
100
AcDbLine
 10
253.6476948734863
 20
-61.75049422135089
 30
0.0
 11
254.4282349734927
 21
-63.0313805393101
 31
0.0
  0
LINE
  5
E0
330
400
100
AcDbEntity
  8
DATA
  6
Continuous
 62
     7
100
AcDbLine
 10
253.6476948734863
 20
-61.75049422135089
 30
0.0
 11
255.3555764658571
 21
-60.70975387599996
 31
0.0
  0
LINE
  5
E1
330
400
100
AcDbEntity
  8
DATA
  6
Continuous
 62
     7
100
AcDbLine
 10
255.3555764658571
 20
-60.70975387599996
 30
0.0
 11
256.1361165658635
 21
-61.99064019395916
 31
0.0
  0
LINE
  5
E2
330
400
100
AcDbEntity
  8
DATA
  6
Continuous
 62
     7
100
AcDbLine
 10
284.9738639011306
 20
-40.41401719637275
 30
0.0
 11
284.9738639011306
 21
-36.49426719879443
 31
0.0
  0
LINE
  5
E3
330
400
100
AcDbEntity
  8
DATA
  6
Continuous
 62
     7
100
AcDbLine
 10
284.1738639011306
 20
-40.4140171963728
 30
0.0
 11
284.1738639011306
 21
-36.4942671987945
 31
0.0
  0
LINE
  5
E4
330
400
100
AcDbEntity
  8
DATA
  6
Continuous
 62
     7
100
AcDbLine
 10
276.3807718586676
 20
-43.24919923106073
 30
0.0
 11
280.1669596139248
 21
-42.23469327964693
 31
0.0
  0
LINE
  5
E5
330
400
100
AcDbEntity
  8
DATA
  6
Continuous
 62
     7
100
AcDbLine
 10
276.1737166225854
 20
-42.47645857002948
 30
0.0
 11
279.9599043778429
 21
-41.4619526186156
 31
0.0
  0
LINE
  5
E6
330
400
100
AcDbEntity
  8
DATA
  6
Continuous
 62
     7
100
AcDbLine
 10
270.2681453853945
 20
-47.58483873525447
 30
0.0
 11
273.6627484597812
 21
-45.6249637364653
 31
0.0
  0
LINE
  5
E7
330
400
100
AcDbEntity
  8
DATA
  6
Continuous
 62
     7
100
AcDbLine
 10
269.8681453853944
 20
-46.89201841222689
 30
0.0
 11
273.2627484597813
 21
-44.93214341343772
 31
0.0
  0
LINE
  5
E8
330
400
100
AcDbEntity
  8
DATA
  6
Continuous
 62
     7
100
AcDbLine
 10
265.7601959869597
 20
-52.1223460815707
 30
0.0
 11
265.7601959869597
 21
-48.20259608399238
 31
0.0
  0
LINE
  5
E9
330
400
100
AcDbEntity
  8
DATA
  6
Continuous
 62
     7
100
AcDbLine
 10
264.9601959869598
 20
-52.1223460815707
 30
0.0
 11
264.9601959869597
 21
-48.20259608399238
 31
0.0
  0
LINE
  5
EA
330
400
100
AcDbEntity
  8
DATA
  6
Continuous
 62
     7
100
AcDbLine
 10
256.9971549452561
 20
-54.46385744937174
 30
0.0
 11
260.9169049428343
 21
-54.46385744937174
 31
0.0
  0
LINE
  5
EB
330
400
100
AcDbEntity
  8
DATA
  6
Continuous
 62
     7
100
AcDbLine
 10
256.997154945256
 20
-53.66385744937172
 30
0.0
 11
260.9169049428343
 21
-53.66385744937172
 31
0.0
  0
LINE
  5
EC
330
400
100
AcDbEntity
  8
DATA
  6
Continuous
 62
     7
100
AcDbLine
 10
253.8776179201938
 20
-59.46602017434474
 30
0.0
 11
251.9177429214046
 21
-56.07141709995794
 31
0.0
  0
LINE
  5
ED
330
400
100
AcDbEntity
  8
DATA
  6
Continuous
 62
     7
100
AcDbLine
 10
253.1847975971663
 20
-59.86602017434474
 30
0.0
 11
251.2249225983771
 21
-56.47141709995793
 31
0.0
  0
TEXT
  5
EE
330
400
100
AcDbEntity
  8
DATA
 62
     7
100
AcDbText
 10
276.6996662412649
 20
57.07052951388888
 30
0.0
 40
10.85894097222222
  1
端子拡大図
 41
0.7
 72
     1
 11
298.2365658361723
 21
62.5
 31
0.0
100
AcDbText
 73
     2
  0
LINE
  5
EF
330
400
100
AcDbEntity
  8
DATA
  6
Continuous
 62
     7
100
AcDbLine
 10
259.6875
 20
50.0
 30
0.0
 11
340.3125
 21
50.0
 31
0.0
  0
TEXT
  5
F0
330
400
100
AcDbEntity
  8
DATA
 62
     7
100
AcDbText
 10
247.1839729887635
 20
-309.0832594444445
 30
0.0
 40
6.515364583333332
  1
天井埋込用同軸2-Wayフルレンジ・トランスデューサー
 41
0.7
 11
247.1839729887635
 21
-302.5678948611112
 31
0.0
100
AcDbText
 73
     3
  0
TEXT
  5
F1
330
400
100
AcDbEntity
  8
DATA
 62
     7
100
AcDbText
 10
300.0
 20
-324.8809949999998
 30
0.0
 40
9.773046875
  1
Control 26-DT
 41
0.7
 11
300.0
 21
-315.1079481249998
 31
0.0
100
AcDbText
 73
     3
  0
LINE
  5
F2
330
400
100
AcDbEntity
  8
DATA
  6
Continuous
 62
     7
100
AcDbLine
 10
109.4
 20
-189.75
 30
0.0
 11
109.4
 21
-10.25
 31
0.0
  0
LINE
  5
F3
330
400
100
AcDbEntity
  8
DATA
  6
Continuous
 62
     7
100
AcDbLine
 10
111.0
 20
-189.75
 30
0.0
 11
109.4
 21
-189.75
 31
0.0
  0
LINE
  5
F4
330
400
100
AcDbEntity
  8
DATA
  6
Continuous
 62
     7
100
AcDbLine
 10
111.0
 20
-10.25
 30
0.0
 11
111.0
 21
-189.75
 31
0.0
  0
LINE
  5
F5
330
400
100
AcDbEntity
  8
DATA
  6
Continuous
 62
     7
100
AcDbLine
 10
109.4
 20
-10.25
 30
0.0
 11
111.0
 21
-10.25
 31
0.0
  0
LINE
  5
F6
330
400
100
AcDbEntity
  8
DATA
  6
Continuous
 62
     7
100
AcDbLine
 10
37.5
 20
-200.25
 30
0.0
 11
37.5
 21
0.25
 31
0.0
  0
LINE
  5
F7
330
400
100
AcDbEntity
  8
DATA
  6
Continuous
 62
     7
100
AcDbLine
 10
46.5
 20
-200.25
 30
0.0
 11
37.5
 21
-200.25
 31
0.0
  0
LINE
  5
F8
330
400
100
AcDbEntity
  8
DATA
  6
Continuous
 62
     7
100
AcDbLine
 10
46.5
 20
-200.25
 30
0.0
 11
46.5
 21
0.25
 31
0.0
  0
LINE
  5
F9
330
400
100
AcDbEntity
  8
DATA
  6
Continuous
 62
     7
100
AcDbLine
 10
37.5
 20
0.25
 30
0.0
 11
46.5
 21
0.25
 31
0.0
  0
LINE
  5
FA
330
400
100
AcDbEntity
  8
DATA
  6
Continuous
 62
     7
100
AcDbLine
 10
64.5
 20
-129.5
 30
0.0
 11
64.5
 21
-70.5
 31
0.0
  0
LINE
  5
FB
330
400
100
AcDbEntity
  8
DATA
  6
Continuous
 62
     7
100
AcDbLine
 10
68.0
 20
-70.5
 30
0.0
 11
68.0
 21
-129.5
 31
0.0
  0
LINE
  5
FC
330
400
100
AcDbEntity
  8
DATA
  6
Continuous
 62
     7
100
AcDbLine
 10
46.5
 20
-70.5
 30
0.0
 11
109.4
 21
-70.5
 31
0.0
  0
LINE
  5
FD
330
400
100
AcDbEntity
  8
DATA
  6
Continuous
 62
     7
100
AcDbLine
 10
46.5
 20
-129.5
 30
0.0
 11
109.4
 21
-129.5
 31
0.0
  0
LINE
  5
FE
330
400
100
AcDbEntity
  8
DATA
  6
Continuous
 62
     7
100
AcDbLine
 10
46.5
 20
-18.5
 30
0.0
 11
109.4
 21
-18.5
 31
0.0
  0
LINE
  5
FF
330
400
100
AcDbEntity
  8
DATA
  6
Continuous
 62
     7
100
AcDbLine
 10
46.5
 20
-181.5
 30
0.0
 11
109.4
 21
-181.5
 31
0.0
  0
LINE
  5
100
330
400
100
AcDbEntity
  8
DATA
  6
Continuous
 62
     7
100
AcDbLine
 10
58.5
 20
-106.5
 30
0.0
 11
64.5
 21
-106.5
 31
0.0
  0
LINE
  5
101
330
400
100
AcDbEntity
  8
DATA
  6
Continuous
 62
     7
100
AcDbLine
 10
64.5
 20
-93.49999999999999
 30
0.0
 11
58.5
 21
-93.49999999999999
 31
0.0
  0
ARC
  5
102
330
400
100
AcDbEntity
  8
DATA
  6
Continuous
 62
     7
100
AcDbCircle
 10
64.04166666666665
 20
-100.0
 30
0.0
 40
8.541666666666653
100
AcDbArc
 50
130.4497188623361
 51
229.5502811376639
  0
LINE
  5
103
330
400
100
AcDbEntity
  8
DATA
  6
Continuous
 62
     7
100
AcDbLine
 10
68.0
 20
-96.0
 30
0.0
 11
69.0
 21
-96.0
 31
0.0
  0
LINE
  5
104
330
400
100
AcDbEntity
  8
DATA
  6
Continuous
 62
     7
100
AcDbLine
 10
68.0
 20
-104.0
 30
0.0
 11
69.0
 21
-104.0
 31
0.0
  0
ARC
  5
105
330
400
100
AcDbEntity
  8
DATA
  6
Continuous
 62
     7
100
AcDbCircle
 10
61.49999999999999
 20
-100.0
 30
0.0
 40
8.500000000000012
100
AcDbArc
 50
331.9275130641471
 51
28.07248693585291
  0
LINE
  5
106
330
400
100
AcDbEntity
  8
DATA
  6
Continuous
 62
     7
100
AcDbLine
 10
69.0
 20
-96.0
 30
0.0
 11
69.0
 21
-104.0
 31
0.0
  0
LINE
  5
107
330
400
100
AcDbEntity
  8
DATA
  6
Continuous
 62
     7
100
AcDbLine
 10
37.5
 20
-30.54086702081349
 30
0.0
 11
46.5
 21
-30.54086702081349
 31
0.0
  0
LINE
  5
108
330
400
100
AcDbEntity
  8
DATA
  6
Continuous
 62
     7
100
AcDbLine
 10
37.5
 20
-27.71243989606728
 30
0.0
 11
46.5
 21
-27.71243989606728
 31
0.0
  0
LINE
  5
109
330
400
100
AcDbEntity
  8
DATA
  6
Continuous
 62
     7
100
AcDbLine
 10
37.5
 20
-169.4591329791865
 30
0.0
 11
46.5
 21
-169.4591329791865
 31
0.0
  0
LINE
  5
10A
330
400
100
AcDbEntity
  8
DATA
  6
Continuous
 62
     7
100
AcDbLine
 10
37.5
 20
-172.2875601039327
 30
0.0
 11
46.5
 21
-172.2875601039327
 31
0.0
  0
ARC
  5
10B
330
400
100
AcDbEntity
  8
DATA
  6
Continuous
 62
     7
100
AcDbCircle
 10
300.0
 20
-99.99999999999994
 30
0.0
 40
100.25
100
AcDbArc
 50
136.1431337832495
 51
223.8568662167505
  0
ARC
  5
10C
330
400
100
AcDbEntity
  8
DATA
  6
Continuous
 62
     7
100
AcDbCircle
 10
300.0
 20
-99.99999999999994
 30
0.0
 40
100.25
100
AcDbArc
 50
226.1431337832492
 51
313.8568662167504
  0
ARC
  5
10D
330
400
100
AcDbEntity
  8
DATA
  6
Continuous
 62
     7
100
AcDbCircle
 10
300.0
 20
-99.99999999999994
 30
0.0
 40
100.25
100
AcDbArc
 50
316.1431337832494
 51
43.85686621675047
  0
ARC
  5
10E
330
400
100
AcDbEntity
  8
DATA
  6
Continuous
 62
     7
100
AcDbCircle
 10
300.0
 20
-99.99999999999994
 30
0.0
 40
100.2499999999999
100
AcDbArc
 50
46.14313378324939
 51
133.8568662167509
  0
LINE
  5
10F
330
400
100
AcDbEntity
  8
DATA
  6
Continuous
 62
     7
100
AcDbLine
 10
230.8803121390149
 20
-33.70873926376118
 30
0.0
 11
227.7124398960672
 21
-30.54086702081347
 31
0.0
  0
LINE
  5
110
330
400
100
AcDbEntity
  8
DATA
  6
Continuous
 62
     7
100
AcDbLine
 10
233.7087392637612
 20
-30.88031213901496
 30
0.0
 11
230.5408670208134
 21
-27.71243989606728
 31
0.0
  0
ARC
  5
111
330
400
100
AcDbEntity
  8
DATA
  6
Continuous
 62
     7
100
AcDbCircle
 10
232.294525701388
 20
-32.29452570138807
 30
0.0
 40
2.000000000000015
100
AcDbArc
 50
225.0
 51
45.0
  0
LINE
  5
112
330
400
100
AcDbEntity
  8
DATA
  6
Continuous
 62
     7
100
AcDbLine
 10
233.7087392637612
 20
-169.119687860985
 30
0.0
 11
230.5408670208134
 21
-172.2875601039327
 31
0.0
  0
LINE
  5
113
330
400
100
AcDbEntity
  8
DATA
  6
Continuous
 62
     7
100
AcDbLine
 10
230.880312139015
 20
-166.2912607362388
 30
0.0
 11
227.7124398960672
 21
-169.4591329791865
 31
0.0
  0
ARC
  5
114
330
400
100
AcDbEntity
  8
DATA
  6
Continuous
 62
     7
100
AcDbCircle
 10
232.294525701388
 20
-167.7054742986119
 30
0.0
 40
2.000000000000015
100
AcDbArc
 50
315.0
 51
135.0
  0
LINE
  5
115
330
400
100
AcDbEntity
  8
DATA
  6
Continuous
 62
     7
100
AcDbLine
 10
369.119687860985
 20
-166.2912607362388
 30
0.0
 11
372.2875601039327
 21
-169.4591329791865
 31
0.0
  0
LINE
  5
116
330
400
100
AcDbEntity
  8
DATA
  6
Continuous
 62
     7
100
AcDbLine
 10
366.2912607362388
 20
-169.119687860985
 30
0.0
 11
369.4591329791864
 21
-172.2875601039327
 31
0.0
  0
ARC
  5
117
330
400
100
AcDbEntity
  8
DATA
  6
Continuous
 62
     7
100
AcDbCircle
 10
367.7054742986119
 20
-167.7054742986119
 30
0.0
 40
1.999999999999975
100
AcDbArc
 50
44.99999999999885
 51
225.0
  0
LINE
  5
118
330
400
100
AcDbEntity
  8
DATA
  6
Continuous
 62
     7
100
AcDbLine
 10
366.2912607362388
 20
-30.88031213901499
 30
0.0
 11
369.4591329791864
 21
-27.71243989606728
 31
0.0
  0
LINE
  5
119
330
400
100
AcDbEntity
  8
DATA
  6
Continuous
 62
     7
100
AcDbLine
 10
369.119687860985
 20
-33.70873926376118
 30
0.0
 11
372.2875601039327
 21
-30.54086702081349
 31
0.0
  0
ARC
  5
11A
330
400
100
AcDbEntity
  8
DATA
  6
Continuous
 62
     7
100
AcDbCircle
 10
367.7054742986119
 20
-32.29452570138807
 30
0.0
 40
1.999999999999995
100
AcDbArc
 50
135.0000000000006
 51
315.0
  0
ARC
  5
11B
330
400
100
AcDbEntity
  8
DATA
  6
Continuous
 62
     7
100
AcDbCircle
 10
300.0
 20
-99.99999999999996
 30
0.0
 40
43.5
100
AcDbArc
 50
227.8053850675046
 51
224.7804160213861
  0
ARC
  5
11C
330
400
100
AcDbEntity
  8
DATA
  6
Continuous
 62
     7
100
AcDbCircle
 10
-100.0000000000001
 20
-100.0
 30
0.0
 40
100.25
100
AcDbArc
 50
136.1431337832495
 51
223.8568662167505
  0
ARC
  5
11D
330
400
100
AcDbEntity
  8
DATA
  6
Continuous
 62
     7
100
AcDbCircle
 10
-100.0000000000001
 20
-100.0
 30
0.0
 40
100.25
100
AcDbArc
 50
226.1431337832492
 51
313.8568662167505
  0
ARC
  5
11E
330
400
100
AcDbEntity
  8
DATA
  6
Continuous
 62
     7
100
AcDbCircle
 10
-100.0000000000001
 20
-100.0
 30
0.0
 40
100.2499999999999
100
AcDbArc
 50
316.1431337832494
 51
43.85686621675047
  0
ARC
  5
11F
330
400
100
AcDbEntity
  8
DATA
  6
Continuous
 62
     7
100
AcDbCircle
 10
-100.0000000000001
 20
-100.0
 30
0.0
 40
100.2499999999999
100
AcDbArc
 50
46.14313378324939
 51
133.8568662167509
  0
LINE
  5
120
330
400
100
AcDbEntity
  8
DATA
  6
Continuous
 62
     7
100
AcDbLine
 10
-169.1196878609851
 20
-33.70873926376123
 30
0.0
 11
-172.2875601039328
 21
-30.54086702081352
 31
0.0
  0
LINE
  5
121
330
400
100
AcDbEntity
  8
DATA
  6
Continuous
 62
     7
100
AcDbLine
 10
-166.2912607362389
 20
-30.88031213901502
 30
0.0
 11
-169.4591329791866
 21
-27.71243989606734
 31
0.0
  0
ARC
  5
122
330
400
100
AcDbEntity
  8
DATA
  6
Continuous
 62
     7
100
AcDbCircle
 10
-167.705474298612
 20
-32.29452570138813
 30
0.0
 40
2.000000000000015
100
AcDbArc
 50
225.0
 51
45.0
  0
LINE
  5
123
330
400
100
AcDbEntity
  8
DATA
  6
Continuous
 62
     7
100
AcDbLine
 10
-166.2912607362389
 20
-169.119687860985
 30
0.0
 11
-169.4591329791866
 21
-172.2875601039328
 31
0.0
  0
LINE
  5
124
330
400
100
AcDbEntity
  8
DATA
  6
Continuous
 62
     7
100
AcDbLine
 10
-169.1196878609851
 20
-166.2912607362389
 30
0.0
 11
-172.2875601039328
 21
-169.4591329791865
 31
0.0
  0
ARC
  5
125
330
400
100
AcDbEntity
  8
DATA
  6
Continuous
 62
     7
100
AcDbCircle
 10
-167.705474298612
 20
-167.7054742986119
 30
0.0
 40
2.000000000000015
100
AcDbArc
 50
315.0
 51
135.0
  0
LINE
  5
126
330
400
100
AcDbEntity
  8
DATA
  6
Continuous
 62
     7
100
AcDbLine
 10
-30.88031213901509
 20
-166.2912607362389
 30
0.0
 11
-27.71243989606741
 21
-169.4591329791865
 31
0.0
  0
LINE
  5
127
330
400
100
AcDbEntity
  8
DATA
  6
Continuous
 62
     7
100
AcDbLine
 10
-33.70873926376127
 20
-169.119687860985
 30
0.0
 11
-30.5408670208136
 21
-172.2875601039328
 31
0.0
  0
ARC
  5
128
330
400
100
AcDbEntity
  8
DATA
  6
Continuous
 62
     7
100
AcDbCircle
 10
-32.29452570138818
 20
-167.7054742986119
 30
0.0
 40
1.999999999999955
100
AcDbArc
 50
44.99999999999942
 51
224.9999999999994
  0
LINE
  5
129
330
400
100
AcDbEntity
  8
DATA
  6
Continuous
 62
     7
100
AcDbLine
 10
-33.70873926376125
 20
-30.88031213901505
 30
0.0
 11
-30.54086702081356
 21
-27.71243989606734
 31
0.0
  0
LINE
  5
12A
330
400
100
AcDbEntity
  8
DATA
  6
Continuous
 62
     7
100
AcDbLine
 10
-30.88031213901506
 20
-33.70873926376123
 30
0.0
 11
-27.71243989606738
 21
-30.54086702081355
 31
0.0
  0
ARC
  5
12B
330
400
100
AcDbEntity
  8
DATA
  6
Continuous
 62
     7
100
AcDbCircle
 10
-32.29452570138818
 20
-32.29452570138813
 30
0.0
 40
1.999999999999976
100
AcDbArc
 50
135.0
 51
315.0
  0
ARC
  5
12C
330
400
100
AcDbEntity
  8
DATA
  6
Continuous
 62
     7
100
AcDbCircle
 10
-100.0000000000001
 20
-100.0
 30
0.0
 40
96.25000000000005
100
AcDbArc
 50
148.6206930582302
 51
211.3793069417698
  0
ARC
  5
12D
330
400
100
AcDbEntity
  8
DATA
  6
Continuous
 62
     7
100
AcDbCircle
 10
-100.0000000000001
 20
-100.0
 30
0.0
 40
96.25000000000007
100
AcDbArc
 50
238.6206930582302
 51
301.3793069417698
  0
ARC
  5
12E
330
400
100
AcDbEntity
  8
DATA
  6
Continuous
 62
     7
100
AcDbCircle
 10
-100.0000000000001
 20
-100.0
 30
0.0
 40
96.2500000000001
100
AcDbArc
 50
328.6206930582302
 51
31.37930694176982
  0
ARC
  5
12F
330
400
100
AcDbEntity
  8
DATA
  6
Continuous
 62
     7
100
AcDbCircle
 10
-100.0000000000001
 20
-100.0
 30
0.0
 40
96.25000000000005
100
AcDbArc
 50
58.62069305823015
 51
121.3793069417698
  0
ARC
  5
130
330
400
100
AcDbEntity
  8
DATA
  6
Continuous
 62
     7
100
AcDbCircle
 10
-173.5723491455194
 20
-26.42765085448068
 30
0.0
 40
16.54701397724205
100
AcDbArc
 50
277.6618784061646
 51
352.3381215938353
  0
ARC
  5
131
330
400
100
AcDbEntity
  8
DATA
  6
Continuous
 62
     7
100
AcDbCircle
 10
-169.3662864767719
 20
-57.69301711983673
 30
0.0
 40
14.99999999999983
100
AcDbArc
 50
97.66187840616474
 51
148.6206930582309
  0
ARC
  5
132
330
400
100
AcDbEntity
  8
DATA
  6
Continuous
 62
     7
100
AcDbCircle
 10
-142.3069828801633
 20
-30.63371352322809
 30
0.0
 40
14.99999999999989
100
AcDbArc
 50
121.37930694177
 51
172.3381215938356
  0
ARC
  5
133
330
400
100
AcDbEntity
  8
DATA
  6
Continuous
 62
     7
100
AcDbCircle
 10
-173.5723491455194
 20
-173.5723491455194
 30
0.0
 40
16.54701397724203
100
AcDbArc
 50
7.661878406164634
 51
82.33812159383537
  0
ARC
  5
134
330
400
100
AcDbEntity
  8
DATA
  6
Continuous
 62
     7
100
AcDbCircle
 10
-169.3662864767722
 20
-142.306982880163
 30
0.0
 40
14.99999999999989
100
AcDbArc
 50
211.3793069417702
 51
262.3381215938362
  0
ARC
  5
135
330
400
100
AcDbEntity
  8
DATA
  6
Continuous
 62
     7
100
AcDbCircle
 10
-142.3069828801632
 20
-169.3662864767719
 30
0.0
 40
15.00000000000003
100
AcDbArc
 50
187.6618784061646
 51
238.6206930582304
  0
ARC
  5
136
330
400
100
AcDbEntity
  8
DATA
  6
Continuous
 62
     7
100
AcDbCircle
 10
-26.42765085448072
 20
-173.5723491455194
 30
0.0
 40
16.54701397724207
100
AcDbArc
 50
97.66187840616453
 51
172.3381215938354
  0
ARC
  5
137
330
400
100
AcDbEntity
  8
DATA
  6
Continuous
 62
     7
100
AcDbCircle
 10
-57.69301711983693
 20
-169.3662864767719
 30
0.0
 40
14.99999999999999
100
AcDbArc
 50
301.3793069417697
 51
352.3381215938353
  0
ARC
  5
138
330
400
100
AcDbEntity
  8
DATA
  6
Continuous
 62
     7
100
AcDbCircle
 10
-30.63371352322808
 20
-142.3069828801631
 30
0.0
 40
14.99999999999999
100
AcDbArc
 50
277.6618784061644
 51
328.6206930582302
  0
ARC
  5
139
330
400
100
AcDbEntity
  8
DATA
  6
Continuous
 62
     7
100
AcDbCircle
 10
-26.42765085448069
 20
-26.42765085448068
 30
0.0
 40
16.54701397724208
100
AcDbArc
 50
187.6618784061645
 51
262.3381215938353
  0
ARC
  5
13A
330
400
100
AcDbEntity
  8
DATA
  6
Continuous
 62
     7
100
AcDbCircle
 10
-30.63371352322825
 20
-57.6930171198369
 30
0.0
 40
15.00000000000008
100
AcDbArc
 50
31.37930694176994
 51
82.33812159383502
  0
ARC
  5
13B
330
400
100
AcDbEntity
  8
DATA
  6
Continuous
 62
     7
100
AcDbCircle
 10
-57.693017119837
 20
-30.63371352322815
 30
0.0
 40
15.00000000000009
100
AcDbArc
 50
7.661878406164754
 51
58.62069305822998
  0
ARC
  5
13C
330
400
100
AcDbEntity
  8
DATA
  6
Continuous
 62
     7
100
AcDbCircle
 10
-100.0
 20
-100.0
 30
0.0
 40
80.00000000000007
100
AcDbArc
 50
266.416678301528
 51
268.8622282573726
  0
ARC
  5
13D
330
400
100
AcDbEntity
  8
DATA
  6
Continuous
 62
     7
100
AcDbCircle
 10
-100.0
 20
-100.0
 30
0.0
 40
80.00000000000007
100
AcDbArc
 50
271.137771742627
 51
273.583321698472
  0
ARC
  5
13E
330
400
100
AcDbEntity
  8
DATA
  6
Continuous
 62
     7
100
AcDbCircle
 10
-100.0
 20
-100.0
 30
0.0
 40
80.0
100
AcDbArc
 50
86.41667830152806
 51
88.86222825737242
  0
ARC
  5
13F
330
400
100
AcDbEntity
  8
DATA
  6
Continuous
 62
     7
100
AcDbCircle
 10
-100.0
 20
-100.0
 30
0.0
 40
80.0
100
AcDbArc
 50
91.13777174262731
 51
93.58332169847207
  0
CIRCLE
  5
140
330
400
100
AcDbEntity
  8
DATA
  6
Continuous
 62
     7
100
AcDbCircle
 10
-100.0
 20
-20.75000000000002
 30
0.0
 40
1.75
  0
CIRCLE
  5
141
330
400
100
AcDbEntity
  8
DATA
  6
Continuous
 62
     7
100
AcDbCircle
 10
-179.25
 20
-100.0
 30
0.0
 40
1.75
  0
CIRCLE
  5
142
330
400
100
AcDbEntity
  8
DATA
  6
Continuous
 62
     7
100
AcDbCircle
 10
-100.0
 20
-179.2500000000001
 30
0.0
 40
1.75
  0
CIRCLE
  5
143
330
400
100
AcDbEntity
  8
DATA
  6
Continuous
 62
     7
100
AcDbCircle
 10
-20.75000000000005
 20
-100.0
 30
0.0
 40
1.75
  0
ARC
  5
144
330
400
100
AcDbEntity
  8
DATA
  6
Continuous
 62
     7
100
AcDbCircle
 10
-100.0000000000001
 20
-20.48895323002441
 30
0.0
 40
5.011046769975559
100
AcDbArc
 50
176.1948579615144
 51
3.805142038485655
  0
ARC
  5
145
330
400
100
AcDbEntity
  8
DATA
  6
Continuous
 62
     7
100
AcDbCircle
 10
-179.5110467699757
 20
-100.0
 30
0.0
 40
5.011046769975644
100
AcDbArc
 50
266.1948579615141
 51
93.80514203848587
  0
ARC
  5
146
330
400
100
AcDbEntity
  8
DATA
  6
Continuous
 62
     7
100
AcDbCircle
 10
-100.0
 20
-179.5110467699756
 30
0.0
 40
5.01104676997562
100
AcDbArc
 50
356.1948579615135
 51
183.8051420384865
  0
ARC
  5
147
330
400
100
AcDbEntity
  8
DATA
  6
Continuous
 62
     7
100
AcDbCircle
 10
-20.32820144332179
 20
-100.0
 30
0.0
 40
5.002950603801453
100
AcDbArc
 50
88.03210773600913
 51
271.9678922639909
  0
ARC
  5
148
330
400
100
AcDbEntity
  8
DATA
  6
Continuous
 62
     7
100
AcDbCircle
 10
-100.0
 20
-100.0
 30
0.0
 40
80.00000000000005
100
AcDbArc
 50
176.4166783015281
 51
178.8622282573724
  0
ARC
  5
149
330
400
100
AcDbEntity
  8
DATA
  6
Continuous
 62
     7
100
AcDbCircle
 10
-100.0
 20
-100.0
 30
0.0
 40
80.00000000000003
100
AcDbArc
 50
181.1377717426273
 51
183.5833216984721
  0
ARC
  5
14A
330
400
100
AcDbEntity
  8
DATA
  6
Continuous
 62
     7
100
AcDbCircle
 10
-100.0
 20
-100.0
 30
0.0
 40
80.00000000000003
100
AcDbArc
 50
356.4166783015281
 51
358.8622282573723
  0
ARC
  5
14B
330
400
100
AcDbEntity
  8
DATA
  6
Continuous
 62
     7
100
AcDbCircle
 10
-100.0
 20
-100.0
 30
0.0
 40
80.0
100
AcDbArc
 50
1.137771742627309
 51
3.583321698472095
  0
CIRCLE
  5
14C
330
400
100
AcDbEntity
  8
DATA
  6
Continuous
 62
     7
100
AcDbCircle
 10
-100.0
 20
-100.0
 30
0.0
 40
71.0
  0
CIRCLE
  5
14D
330
400
100
AcDbEntity
  8
DATA
  6
Continuous
 62
     7
100
AcDbCircle
 10
-100.0
 20
-100.0
 30
0.0
 40
60.0
  0
CIRCLE
  5
14E
330
400
100
AcDbEntity
  8
DATA
  6
Continuous
 62
     7
100
AcDbCircle
 10
-100.0
 20
-100.0
 30
0.0
 40
25.75
  0
CIRCLE
  5
14F
330
400
100
AcDbEntity
  8
DATA
  6
Continuous
 62
     7
100
AcDbCircle
 10
-100.0
 20
-100.0
 30
0.0
 40
23.5
  0
CIRCLE
  5
150
330
400
100
AcDbEntity
  8
DATA
  6
Continuous
 62
     7
100
AcDbCircle
 10
-100.0
 20
-100.0
 30
0.0
 40
11.0
  0
CIRCLE
  5
151
330
400
100
AcDbEntity
  8
DATA
  6
Continuous
 62
     7
100
AcDbCircle
 10
-126.5553524813585
 20
-91.12231704830536
 30
0.0
 40
1.5
  0
CIRCLE
  5
152
330
400
100
AcDbEntity
  8
DATA
  6
Continuous
 62
     7
100
AcDbCircle
 10
-108.8776829516946
 20
-73.44464751864189
 30
0.0
 40
1.5
  0
LINE
  5
153
330
400
100
AcDbEntity
  8
DATA
  6
Continuous
 62
     7
100
AcDbLine
 10
-108.1642977145056
 20
-75.57855977160587
 30
0.0
 11
-108.4020927935641
 21
-74.86725568729792
 31
0.0
  0
LINE
  5
154
330
400
100
AcDbEntity
  8
DATA
  6
Continuous
 62
     7
100
AcDbLine
 10
-125.1327443127151
 20
-91.5979072064316
 30
0.0
 11
-124.4214402283922
 21
-91.83570228549513
 31
0.0
  0
ARC
  5
155
330
400
100
AcDbEntity
  8
DATA
  6
Continuous
 62
     7
100
AcDbCircle
 10
-25.87040945860975
 20
-142.6128600063909
 30
0.0
 40
0.1115740901864481
100
AcDbArc
 50
7.641902497546177
 51
54.26701928937829
  0
LINE
  5
156
330
400
100
AcDbEntity
  8
DATA
  6
Continuous
 62
     7
100
AcDbLine
 10
-28.82603676775499
 20
-144.2157025057126
 30
0.0
 11
-29.64384065669479
 21
-143.1395643919837
 31
0.0
  0
LINE
  5
157
330
400
100
AcDbEntity
  8
DATA
  6
Continuous
 62
     7
100
AcDbLine
 10
-28.82603676775499
 20
-144.2157025057126
 30
0.0
 11
-30.1636746566948
 21
-144.0399432914855
 31
0.0
  0
LINE
  5
158
330
400
100
AcDbEntity
  8
DATA
  6
Continuous
 62
     7
100
AcDbLine
 10
-24.89181224344929
 20
-141.9088097412316
 30
0.0
 11
-27.92290115669482
 21
-140.1588097412316
 31
0.0
  0
LINE
  5
159
330
400
100
AcDbEntity
  8
DATA
  6
Continuous
 62
     7
100
AcDbLine
 10
-27.5871076566948
 20
-139.5771983383802
 30
0.0
 11
-25.02018757526804
 21
-141.0592103383802
 31
0.0
  0
LINE
  5
15A
330
400
100
AcDbEntity
  8
DATA
  6
Continuous
 62
     7
100
AcDbLine
 10
-29.5211464066948
 20
-142.9270517171872
 30
0.0
 11
-26.95422632526803
 21
-144.4090637171872
 31
0.0
  0
LINE
  5
15B
330
400
100
AcDbEntity
  8
DATA
  6
Continuous
 62
     7
100
AcDbLine
 10
-29.1982679066948
 20
-142.3678097505155
 30
0.0
 11
-26.63134782526803
 21
-143.8498217505155
 31
0.0
  0
LINE
  5
15C
330
400
100
AcDbEntity
  8
DATA
  6
Continuous
 62
     7
100
AcDbLine
 10
-29.03037115669479
 20
-142.0770040490898
 30
0.0
 11
-25.99928224344927
 21
-143.8270040490898
 31
0.0
  0
LINE
  5
15D
330
400
100
AcDbEntity
  8
DATA
  6
Continuous
 62
     7
100
AcDbLine
 10
-28.45134109540298
 20
-141.7327595638227
 30
0.0
 11
-27.47825849722807
 21
-142.2945690638227
 31
0.0
  0
LINE
  5
15E
330
400
100
AcDbEntity
  8
DATA
  6
Continuous
 62
     7
100
AcDbLine
 10
-26.90481250488051
 20
-141.17129946968
 30
0.0
 11
-27.61466624856245
 21
-140.7614652196799
 31
0.0
  0
LINE
  5
15F
330
400
100
AcDbEntity
  8
DATA
  6
Continuous
 62
     7
100
AcDbLine
 10
-27.99747519723553
 20
-141.2566077683738
 30
0.0
 11
-27.29282886430661
 21
-141.6634355183738
 31
0.0
  0
ARC
  5
160
330
400
100
AcDbEntity
  8
DATA
  6
Continuous
 62
     7
100
AcDbCircle
 10
-27.33317250459242
 20
-144.3399097531112
 30
0.0
 40
0.9025986988087378
100
AcDbArc
 50
324.6908562215353
 51
23.99119915424416
  0
LINE
  5
161
330
400
100
AcDbEntity
  8
DATA
  6
Continuous
 62
     7
100
AcDbLine
 10
-27.68615740544439
 20
-144.5531795356914
 30
0.0
 11
-27.19961913744584
 21
-144.8340825356914
 31
0.0
  0
LINE
  5
162
330
400
100
AcDbEntity
  8
DATA
  6
Continuous
 62
     7
100
AcDbLine
 10
-27.68615740544439
 20
-144.5531795356914
 30
0.0
 11
-27.9767484054444
 21
-145.0564979119136
 31
0.0
  0
LINE
  5
163
330
400
100
AcDbEntity
  8
DATA
  6
Continuous
 62
     7
100
AcDbLine
 10
-27.9767484054444
 20
-145.0564979119136
 30
0.0
 11
-27.49021013744585
 21
-145.3374009119136
 31
0.0
  0
ARC
  5
164
330
400
100
AcDbEntity
  8
DATA
  6
Continuous
 62
     7
100
AcDbCircle
 10
-27.06975136103761
 20
-144.6242929486863
 30
0.0
 40
0.2442750891848774
100
AcDbArc
 50
329.7118487927516
 51
61.775987005675
  0
ARC
  5
165
330
400
100
AcDbEntity
  8
DATA
  6
Continuous
 62
     7
100
AcDbCircle
 10
-27.07098161103761
 20
-144.6264238041923
 30
0.0
 40
0.2442738401108264
100
AcDbArc
 50
238.2240129943194
 51
330.2881512072495
  0
ARC
  5
166
330
400
100
AcDbEntity
  8
DATA
  6
Continuous
 62
     7
100
AcDbCircle
 10
-27.41668775459243
 20
-144.484562409318
 30
0.0
 40
0.9025972329313292
100
AcDbArc
 50
276.0088008457564
 51
335.3091437784629
  0
ARC
  5
167
330
400
100
AcDbEntity
  8
DATA
  6
Continuous
 62
     7
100
AcDbCircle
 10
-27.30339288307244
 20
-144.9742529356083
 30
0.0
 40
0.4083800728616766
100
AcDbArc
 50
242.7769954499959
 51
267.3596066671482
  0
CIRCLE
  5
168
330
400
100
AcDbEntity
  8
DATA
  6
Continuous
 62
     7
100
AcDbCircle
 10
-28.38884477720687
 20
-144.427102765421
 30
0.0
 40
0.3325629999999767
  0
LINE
  5
169
330
400
100
AcDbEntity
  8
DATA
  6
Continuous
 62
     7
100
AcDbLine
 10
-24.01681527453821
 20
-140.3932635346088
 30
0.0
 11
-24.8918152745382
 21
-141.9088079912316
 31
0.0
  0
LINE
  5
16A
330
400
100
AcDbEntity
  8
DATA
  6
Continuous
 62
     7
100
AcDbLine
 10
-24.01681527453821
 20
-140.3932635346088
 30
0.0
 11
-24.96752843653326
 21
-139.8443690346088
 31
0.0
  0
LINE
  5
16B
330
400
100
AcDbEntity
  8
DATA
  6
Continuous
 62
     7
100
AcDbLine
 10
-24.96752540544441
 20
-139.8443707846088
 30
0.0
 11
-25.2613434054444
 21
-140.353278488787
 31
0.0
  0
LINE
  5
16C
330
400
100
AcDbEntity
  8
DATA
  6
Continuous
 62
     7
100
AcDbLine
 10
-25.2613434054444
 20
-140.353278488787
 30
0.0
 11
-24.77480513744587
 21
-140.6341814887871
 31
0.0
  0
LINE
  5
16D
330
400
100
AcDbEntity
  8
DATA
  6
Continuous
 62
     7
100
AcDbLine
 10
-25.99928527453818
 20
-143.8270022990899
 30
0.0
 11
-25.38582230562707
 21
-142.7644462683738
 31
0.0
  0
LINE
  5
16E
330
400
100
AcDbEntity
  8
DATA
  6
Continuous
 62
     7
100
AcDbLine
 10
-25.99068061691895
 20
-143.1534265949116
 30
0.0
 11
-25.83247011691895
 21
-142.8793979706207
 31
0.0
  0
LINE
  5
16F
330
400
100
AcDbEntity
  8
DATA
  6
Continuous
 62
     7
100
AcDbLine
 10
-25.99067886691893
 20
-143.1534235638227
 30
0.0
 11
-27.18745582689133
 21
-142.4624640638227
 31
0.0
  0
LINE
  5
170
330
400
100
AcDbEntity
  8
DATA
  6
Continuous
 62
     7
100
AcDbLine
 10
-27.18745757689129
 20
-142.4624670949116
 30
0.0
 11
-27.02924707689129
 21
-142.1884384706208
 31
0.0
  0
LINE
  5
171
330
400
100
AcDbEntity
  8
DATA
  6
Continuous
 62
     7
100
AcDbLine
 10
-25.80524923399741
 20
-142.5222900183738
 30
0.0
 11
-26.73359295981277
 21
-141.9863105183738
 31
0.0
  0
ARC
  5
172
330
400
100
AcDbEntity
  8
DATA
  6
Continuous
 62
     7
100
AcDbCircle
 10
-26.85244063307243
 20
-144.1931807268208
 30
0.0
 40
0.4083794917527585
100
AcDbArc
 50
32.64039333284952
 51
57.22300455000314
  0
ARC
  5
173
330
400
100
AcDbEntity
  8
DATA
  6
Continuous
 62
     7
100
AcDbCircle
 10
-24.89032586103761
 20
-140.8494172513751
 30
0.0
 40
0.2442750891848528
100
AcDbArc
 50
329.7118487927483
 51
61.77598700568085
  0
ARC
  5
174
330
400
100
AcDbEntity
  8
DATA
  6
Continuous
 62
     7
100
AcDbCircle
 10
-24.89155436103761
 20
-140.8515450757921
 30
0.0
 40
0.2442738401108897
100
AcDbArc
 50
238.2240129943209
 51
330.2881512072429
  0
LINE
  5
175
330
400
100
AcDbEntity
  8
DATA
  6
Continuous
 62
     7
100
AcDbLine
 10
-25.56239707362565
 20
-141.9466707378819
 30
0.0
 11
-26.36770283827454
 21
-141.4817272378819
 31
0.0
  0
LINE
  5
176
330
400
100
AcDbEntity
  8
DATA
  6
Continuous
 62
     7
100
AcDbLine
 10
-27.47826024722804
 20
-142.2945720949116
 30
0.0
 11
-27.32004974722804
 21
-142.0205434706207
 31
0.0
  0
ARC
  5
177
330
400
100
AcDbEntity
  8
DATA
  6
Continuous
 62
     7
100
AcDbCircle
 10
-25.98347810056197
 20
-142.4707644706389
 30
0.0
 40
0.6659139941013651
100
AcDbArc
 50
333.8309816091135
 51
51.13514730980306
  0
LINE
  5
178
330
400
100
AcDbEntity
  8
DATA
  6
Continuous
 62
     7
100
AcDbLine
 10
-29.5211464066948
 20
-142.9270517171872
 30
0.0
 11
-29.1982679066948
 21
-142.3678097505155
 31
0.0
  0
LINE
  5
179
330
400
100
AcDbEntity
  8
DATA
  6
Continuous
 62
     7
100
AcDbLine
 10
-30.1636746566948
 20
-144.0399432914855
 30
0.0
 11
-29.64384065669479
 21
-143.1395643919837
 31
0.0
  0
LINE
  5
17A
330
400
100
AcDbEntity
  8
DATA
  6
Continuous
 62
     7
100
AcDbLine
 10
-27.92290115669482
 20
-140.1588097412316
 30
0.0
 11
-27.5871076566948
 21
-139.5771983383802
 31
0.0
  0
LINE
  5
17B
330
400
100
AcDbEntity
  8
DATA
  6
Continuous
 62
     7
100
AcDbLine
 10
-29.03037115669479
 20
-142.0770040490898
 30
0.0
 11
-28.41353043098444
 21
-141.0086102376002
 31
0.0
  0
LINE
  5
17C
330
400
100
AcDbEntity
  8
DATA
  6
Continuous
 62
     7
100
AcDbLine
 10
-28.45133981431404
 20
-141.7327643449116
 30
0.0
 11
-28.29312931431405
 21
-141.4587357206207
 31
0.0
  0
ARC
  5
17D
330
400
100
AcDbEntity
  8
DATA
  6
Continuous
 62
     7
100
AcDbCircle
 10
-27.86130062754478
 20
-141.3789364949706
 30
0.0
 40
0.6649054765190782
100
AcDbArc
 50
68.22692385901854
 51
146.1541266921501
  0
ARC
  5
17E
330
400
100
AcDbEntity
  8
DATA
  6
Continuous
 62
     7
100
AcDbCircle
 10
-26.36216032442616
 20
-142.5692667498839
 30
0.0
 40
0.6138021586836409
100
AcDbArc
 50
329.6512199376186
 51
342.8264828068728
  0
ARC
  5
17F
330
400
100
AcDbEntity
  8
DATA
  6
Continuous
 62
     7
100
AcDbCircle
 10
-26.10295394301983
 20
-142.6393149179121
 30
0.0
 40
0.3456032662926612
100
AcDbArc
 50
341.2331036226541
 51
6.862008894053758
  0
ARC
  5
180
330
400
100
AcDbEntity
  8
DATA
  6
Continuous
 62
     7
100
AcDbCircle
 10
-26.77944875794986
 20
-142.0880259222129
 30
0.0
 40
0.1115740901864646
100
AcDbArc
 50
65.73298071058892
 51
112.3580975024162
  0
ARC
  5
181
330
400
100
AcDbEntity
  8
DATA
  6
Continuous
 62
     7
100
AcDbCircle
 10
-26.49582045747303
 20
-142.4920980360894
 30
0.0
 40
0.6138021586835766
100
AcDbArc
 50
137.1735171931236
 51
150.3487800623842
  0
ARC
  5
182
330
400
100
AcDbEntity
  8
DATA
  6
Continuous
 62
     7
100
AcDbCircle
 10
-26.68608714117707
 20
-142.3026428089826
 30
0.0
 40
0.3456032662925904
100
AcDbArc
 50
113.1379911059336
 51
138.7668963773368
  0
ARC
  5
183
330
400
100
AcDbEntity
  8
DATA
  6
Continuous
 62
     7
100
AcDbCircle
 10
-26.517220485693
 20
-141.7864863998388
 30
0.0
 40
0.339460857369772
100
AcDbArc
 50
63.86700635981799
 51
148.3616345679044
  0
ARC
  5
184
330
400
100
AcDbEntity
  8
DATA
  6
Continuous
 62
     7
100
AcDbCircle
 10
-27.10538323615131
 20
-141.4472701667521
 30
0.0
 40
0.3397981789816664
100
AcDbArc
 50
331.6892821046429
 51
56.07828298265388
  0
ARC
  5
185
330
400
100
AcDbEntity
  8
DATA
  6
Continuous
 62
     7
100
AcDbCircle
 10
-27.35798908891895
 20
-141.7540055063908
 30
0.0
 40
0.1115740901864763
100
AcDbArc
 50
7.641902497544238
 51
54.26701928937237
  0
ARC
  5
186
330
400
100
AcDbEntity
  8
DATA
  6
Continuous
 62
     7
100
AcDbCircle
 10
-27.84973995473523
 20
-141.7104122498839
 30
0.0
 40
0.6138021586836409
100
AcDbArc
 50
329.6512199376186
 51
342.8264828068728
  0
ARC
  5
187
330
400
100
AcDbEntity
  8
DATA
  6
Continuous
 62
     7
100
AcDbCircle
 10
-27.590533573329
 20
-141.7804604179121
 30
0.0
 40
0.3456032662926612
100
AcDbArc
 50
341.2331036226541
 51
6.862008894053758
  0
ARC
  5
188
330
400
100
AcDbEntity
  8
DATA
  6
Continuous
 62
     7
100
AcDbCircle
 10
-28.04333099537256
 20
-141.3583231722129
 30
0.0
 40
0.1115740901864354
100
AcDbArc
 50
65.73298071062217
 51
112.3580975024273
  0
ARC
  5
189
330
400
100
AcDbEntity
  8
DATA
  6
Continuous
 62
     7
100
AcDbCircle
 10
-27.7597026948958
 20
-141.7623952860894
 30
0.0
 40
0.6138021586835662
100
AcDbArc
 50
137.1735171931227
 51
150.3487800623842
  0
ARC
  5
18A
330
400
100
AcDbEntity
  8
DATA
  6
Continuous
 62
     7
100
AcDbCircle
 10
-27.94996937859981
 20
-141.5729400589826
 30
0.0
 40
0.3456032662925848
100
AcDbArc
 50
113.1379911059315
 51
138.7668963773368
  0
ARC
  5
18B
330
400
100
AcDbEntity
  8
DATA
  6
Continuous
 62
     7
100
AcDbCircle
 10
-174.1295905413902
 20
-57.38713999360914
 30
0.0
 40
0.1115740901865045
100
AcDbArc
 50
187.6419024975423
 51
234.2670192893783
  0
LINE
  5
18C
330
400
100
AcDbEntity
  8
DATA
  6
Continuous
 62
     7
100
AcDbLine
 10
-171.173963232245
 20
-55.78429749428733
 30
0.0
 11
-170.3561593433052
 21
-56.86043560801625
 31
0.0
  0
LINE
  5
18D
330
400
100
AcDbEntity
  8
DATA
  6
Continuous
 62
     7
100
AcDbLine
 10
-171.173963232245
 20
-55.78429749428733
 30
0.0
 11
-169.8363253433052
 21
-55.96005670851447
 31
0.0
  0
LINE
  5
18E
330
400
100
AcDbEntity
  8
DATA
  6
Continuous
 62
     7
100
AcDbLine
 10
-175.1081877565507
 20
-58.09119025876839
 30
0.0
 11
-172.0770988433052
 21
-59.84119025876839
 31
0.0
  0
LINE
  5
18F
330
400
100
AcDbEntity
  8
DATA
  6
Continuous
 62
     7
100
AcDbLine
 10
-172.4128923433052
 20
-60.42280166161981
 30
0.0
 11
-174.979812424732
 21
-58.94078966161981
 31
0.0
  0
LINE
  5
190
330
400
100
AcDbEntity
  8
DATA
  6
Continuous
 62
     7
100
AcDbLine
 10
-170.4788535933052
 20
-57.07294828281282
 30
0.0
 11
-173.045773674732
 21
-55.59093628281278
 31
0.0
  0
LINE
  5
191
330
400
100
AcDbEntity
  8
DATA
  6
Continuous
 62
     7
100
AcDbLine
 10
-170.8017320933052
 20
-57.63219024948443
 30
0.0
 11
-173.368652174732
 21
-56.15017824948443
 31
0.0
  0
LINE
  5
192
330
400
100
AcDbEntity
  8
DATA
  6
Continuous
 62
     7
100
AcDbLine
 10
-170.9696288433052
 20
-57.92299595091015
 30
0.0
 11
-174.0007177565508
 21
-56.17299595091015
 31
0.0
  0
LINE
  5
193
330
400
100
AcDbEntity
  8
DATA
  6
Continuous
 62
     7
100
AcDbLine
 10
-171.548658904597
 20
-58.2672404361773
 30
0.0
 11
-172.521741502772
 21
-57.70543093617727
 31
0.0
  0
LINE
  5
194
330
400
100
AcDbEntity
  8
DATA
  6
Continuous
 62
     7
100
AcDbLine
 10
-173.0951874951195
 20
-58.82870053032003
 30
0.0
 11
-172.3853337514375
 21
-59.23853478032004
 31
0.0
  0
LINE
  5
195
330
400
100
AcDbEntity
  8
DATA
  6
Continuous
 62
     7
100
AcDbLine
 10
-172.0025248027645
 20
-58.74339223162616
 30
0.0
 11
-172.7071711356934
 21
-58.33656448162617
 31
0.0
  0
ARC
  5
196
330
400
100
AcDbEntity
  8
DATA
  6
Continuous
 62
     7
100
AcDbCircle
 10
-172.6668274954076
 20
-55.66009024688879
 30
0.0
 40
0.9025986988087842
100
AcDbArc
 50
144.6908562215373
 51
203.9911991542427
  0
LINE
  5
197
330
400
100
AcDbEntity
  8
DATA
  6
Continuous
 62
     7
100
AcDbLine
 10
-172.3138425945555
 20
-55.44682046430864
 30
0.0
 11
-172.8003808625542
 21
-55.16591746430857
 31
0.0
  0
LINE
  5
198
330
400
100
AcDbEntity
  8
DATA
  6
Continuous
 62
     7
100
AcDbLine
 10
-172.3138425945555
 20
-55.44682046430864
 30
0.0
 11
-172.0232515945556
 21
-54.94350208808635
 31
0.0
  0
LINE
  5
199
330
400
100
AcDbEntity
  8
DATA
  6
Continuous
 62
     7
100
AcDbLine
 10
-172.0232515945556
 20
-54.94350208808635
 30
0.0
 11
-172.5097898625541
 21
-54.66259908808631
 31
0.0
  0
ARC
  5
19A
330
400
100
AcDbEntity
  8
DATA
  6
Continuous
 62
     7
100
AcDbCircle
 10
-172.9302486389624
 20
-55.37570705131372
 30
0.0
 40
0.2442750891848038
100
AcDbArc
 50
149.7118487927416
 51
241.7759870056777
  0
ARC
  5
19B
330
400
100
AcDbEntity
  8
DATA
  6
Continuous
 62
     7
100
AcDbCircle
 10
-172.9290183889624
 20
-55.37357619580768
 30
0.0
 40
0.2442738401107965
100
AcDbArc
 50
58.22401299433075
 51
150.2881512072528
  0
ARC
  5
19C
330
400
100
AcDbEntity
  8
DATA
  6
Continuous
 62
     7
100
AcDbCircle
 10
-172.5833122454075
 20
-55.51543759068197
 30
0.0
 40
0.9025972329313264
100
AcDbArc
 50
96.0088008457545
 51
155.3091437784616
  0
ARC
  5
19D
330
400
100
AcDbEntity
  8
DATA
  6
Continuous
 62
     7
100
AcDbCircle
 10
-172.6966071169275
 20
-55.02574706439162
 30
0.0
 40
0.4083800728616635
100
AcDbArc
 50
62.77699544999947
 51
87.35960666714827
  0
CIRCLE
  5
19E
330
400
100
AcDbEntity
  8
DATA
  6
Continuous
 62
     7
100
AcDbCircle
 10
-171.6111552227931
 20
-55.57289723457897
 30
0.0
 40
0.3325629999999483
  0
LINE
  5
19F
330
400
100
AcDbEntity
  8
DATA
  6
Continuous
 62
     7
100
AcDbLine
 10
-175.9831847254618
 20
-59.60673646539118
 30
0.0
 11
-175.1081847254618
 21
-58.09119200876843
 31
0.0
  0
LINE
  5
1A0
330
400
100
AcDbEntity
  8
DATA
  6
Continuous
 62
     7
100
AcDbLine
 10
-175.9831847254618
 20
-59.60673646539118
 30
0.0
 11
-175.0324715634667
 21
-60.1556309653912
 31
0.0
  0
LINE
  5
1A1
330
400
100
AcDbEntity
  8
DATA
  6
Continuous
 62
     7
100
AcDbLine
 10
-175.0324745945556
 20
-60.15562921539117
 30
0.0
 11
-174.7386565945556
 21
-59.64672151121295
 31
0.0
  0
LINE
  5
1A2
330
400
100
AcDbEntity
  8
DATA
  6
Continuous
 62
     7
100
AcDbLine
 10
-174.7386565945556
 20
-59.64672151121295
 30
0.0
 11
-175.2251948625541
 21
-59.36581851121292
 31
0.0
  0
LINE
  5
1A3
330
400
100
AcDbEntity
  8
DATA
  6
Continuous
 62
     7
100
AcDbLine
 10
-174.0007147254619
 20
-56.17299770091012
 30
0.0
 11
-174.614177694373
 21
-57.23555373162617
 31
0.0
  0
LINE
  5
1A4
330
400
100
AcDbEntity
  8
DATA
  6
Continuous
 62
     7
100
AcDbLine
 10
-174.0093193830811
 20
-56.84657340508841
 30
0.0
 11
-174.1675298830811
 21
-57.12060202937926
 31
0.0
  0
LINE
  5
1A5
330
400
100
AcDbEntity
  8
DATA
  6
Continuous
 62
     7
100
AcDbLine
 10
-174.0093211330811
 20
-56.84657643617732
 30
0.0
 11
-172.8125441731086
 21
-57.53753593617728
 31
0.0
  0
LINE
  5
1A6
330
400
100
AcDbEntity
  8
DATA
  6
Continuous
 62
     7
100
AcDbLine
 10
-172.8125424231087
 20
-57.53753290508837
 30
0.0
 11
-172.9707529231087
 21
-57.81156152937921
 31
0.0
  0
LINE
  5
1A7
330
400
100
AcDbEntity
  8
DATA
  6
Continuous
 62
     7
100
AcDbLine
 10
-174.1947507660026
 20
-57.47770998162615
 30
0.0
 11
-173.2664070401872
 21
-58.01368948162616
 31
0.0
  0
ARC
  5
1A8
330
400
100
AcDbEntity
  8
DATA
  6
Continuous
 62
     7
100
AcDbCircle
 10
-173.1475593669275
 20
-55.80681927317914
 30
0.0
 40
0.4083794917527585
100
AcDbArc
 50
212.6403933328495
 51
237.2230045499993
  0
ARC
  5
1A9
330
400
100
AcDbEntity
  8
DATA
  6
Continuous
 62
     7
100
AcDbCircle
 10
-175.1096741389624
 20
-59.15058274862491
 30
0.0
 40
0.2442750891848038
100
AcDbArc
 50
149.7118487927416
 51
241.7759870056777
  0
ARC
  5
1AA
330
400
100
AcDbEntity
  8
DATA
  6
Continuous
 62
     7
100
AcDbCircle
 10
-175.1084456389624
 20
-59.14845492420784
 30
0.0
 40
0.2442738401109046
100
AcDbArc
 50
58.22401299431512
 51
150.2881512072478
  0
LINE
  5
1AB
330
400
100
AcDbEntity
  8
DATA
  6
Continuous
 62
     7
100
AcDbLine
 10
-174.4376029263743
 20
-58.05332926211804
 30
0.0
 11
-173.6322971617254
 21
-58.51827276211804
 31
0.0
  0
LINE
  5
1AC
330
400
100
AcDbEntity
  8
DATA
  6
Continuous
 62
     7
100
AcDbLine
 10
-172.5217397527719
 20
-57.70542790508836
 30
0.0
 11
-172.6799502527719
 21
-57.97945652937926
 31
0.0
  0
ARC
  5
1AD
330
400
100
AcDbEntity
  8
DATA
  6
Continuous
 62
     7
100
AcDbCircle
 10
-174.0165218994381
 20
-57.52923552936102
 30
0.0
 40
0.6659139941013651
100
AcDbArc
 50
153.8309816091135
 51
231.1351473098093
  0
LINE
  5
1AE
330
400
100
AcDbEntity
  8
DATA
  6
Continuous
 62
     7
100
AcDbLine
 10
-170.4788535933052
 20
-57.07294828281282
 30
0.0
 11
-170.8017320933052
 21
-57.63219024948443
 31
0.0
  0
LINE
  5
1AF
330
400
100
AcDbEntity
  8
DATA
  6
Continuous
 62
     7
100
AcDbLine
 10
-169.8363253433052
 20
-55.96005670851447
 30
0.0
 11
-170.3561593433052
 21
-56.86043560801625
 31
0.0
  0
LINE
  5
1B0
330
400
100
AcDbEntity
  8
DATA
  6
Continuous
 62
     7
100
AcDbLine
 10
-172.0770988433052
 20
-59.84119025876839
 30
0.0
 11
-172.4128923433052
 21
-60.42280166161981
 31
0.0
  0
LINE
  5
1B1
330
400
100
AcDbEntity
  8
DATA
  6
Continuous
 62
     7
100
AcDbLine
 10
-170.9696288433052
 20
-57.92299595091015
 30
0.0
 11
-171.5864695690155
 21
-58.99138976239981
 31
0.0
  0
LINE
  5
1B2
330
400
100
AcDbEntity
  8
DATA
  6
Continuous
 62
     7
100
AcDbLine
 10
-171.548660185686
 20
-58.26723565508837
 30
0.0
 11
-171.706870685686
 21
-58.54126427937921
 31
0.0
  0
ARC
  5
1B3
330
400
100
AcDbEntity
  8
DATA
  6
Continuous
 62
     7
100
AcDbCircle
 10
-172.1386993724552
 20
-58.62106350502938
 30
0.0
 40
0.6649054765190782
100
AcDbArc
 50
248.2269238590185
 51
326.1541266921474
  0
ARC
  5
1B4
330
400
100
AcDbEntity
  8
DATA
  6
Continuous
 62
     7
100
AcDbCircle
 10
-173.6378396755739
 20
-57.43073325011603
 30
0.0
 40
0.6138021586836409
100
AcDbArc
 50
149.6512199376185
 51
162.8264828068718
  0
ARC
  5
1B5
330
400
100
AcDbEntity
  8
DATA
  6
Continuous
 62
     7
100
AcDbCircle
 10
-173.8970460569802
 20
-57.3606850820879
 30
0.0
 40
0.3456032662926343
100
AcDbArc
 50
161.2331036226525
 51
186.8620088940544
  0
ARC
  5
1B6
330
400
100
AcDbEntity
  8
DATA
  6
Continuous
 62
     7
100
AcDbCircle
 10
-173.2205512420501
 20
-57.91197407778707
 30
0.0
 40
0.1115740901864412
100
AcDbArc
 50
245.7329807106156
 51
292.3580975024432
  0
ARC
  5
1B7
330
400
100
AcDbEntity
  8
DATA
  6
Continuous
 62
     7
100
AcDbCircle
 10
-173.504179542527
 20
-57.50790196391057
 30
0.0
 40
0.6138021586836184
100
AcDbArc
 50
317.1735171931272
 51
330.3487800623836
  0
ARC
  5
1B8
330
400
100
AcDbEntity
  8
DATA
  6
Continuous
 62
     7
100
AcDbCircle
 10
-173.313912858823
 20
-57.69735719101738
 30
0.0
 40
0.3456032662926127
100
AcDbArc
 50
293.1379911059424
 51
318.7668963773414
  0
ARC
  5
1B9
330
400
100
AcDbEntity
  8
DATA
  6
Continuous
 62
     7
100
AcDbCircle
 10
-173.482779514307
 20
-58.21351360016115
 30
0.0
 40
0.339460857369747
100
AcDbArc
 50
243.8670063598266
 51
328.3616345679108
  0
ARC
  5
1BA
330
400
100
AcDbEntity
  8
DATA
  6
Continuous
 62
     7
100
AcDbCircle
 10
-172.8946167638487
 20
-58.55272983324784
 30
0.0
 40
0.3397981789816664
100
AcDbArc
 50
151.6892821046429
 51
236.0782829826512
  0
ARC
  5
1BB
330
400
100
AcDbEntity
  8
DATA
  6
Continuous
 62
     7
100
AcDbCircle
 10
-172.6420109110811
 20
-58.24599449360913
 30
0.0
 40
0.1115740901863918
100
AcDbArc
 50
187.64190249755
 51
234.2670192893783
  0
ARC
  5
1BC
330
400
100
AcDbEntity
  8
DATA
  6
Continuous
 62
     7
100
AcDbCircle
 10
-172.1502600452647
 20
-58.28958775011603
 30
0.0
 40
0.6138021586836409
100
AcDbArc
 50
149.6512199376185
 51
162.8264828068734
  0
ARC
  5
1BD
330
400
100
AcDbEntity
  8
DATA
  6
Continuous
 62
     7
100
AcDbCircle
 10
-172.4094664266709
 20
-58.21953958208792
 30
0.0
 40
0.3456032662927419
100
AcDbArc
 50
161.2331036226586
 51
186.8620088940521
  0
ARC
  5
1BE
330
400
100
AcDbEntity
  8
DATA
  6
Continuous
 62
     7
100
AcDbCircle
 10
-171.9566690046274
 20
-58.64167682778707
 30
0.0
 40
0.1115740901864412
100
AcDbArc
 50
245.7329807106156
 51
292.3580975023948
  0
ARC
  5
1BF
330
400
100
AcDbEntity
  8
DATA
  6
Continuous
 62
     7
100
AcDbCircle
 10
-172.2402973051042
 20
-58.23760471391057
 30
0.0
 40
0.6138021586836184
100
AcDbArc
 50
317.1735171931272
 51
330.3487800623836
  0
ARC
  5
1C0
330
400
100
AcDbEntity
  8
DATA
  6
Continuous
 62
     7
100
AcDbCircle
 10
-172.0500306214002
 20
-58.42705994101738
 30
0.0
 40
0.3456032662925681
100
AcDbArc
 50
293.1379911059249
 51
318.7668963773388
  0
ARC
  5
1C1
330
400
100
AcDbEntity
  8
DATA
  6
Continuous
 62
     7
100
AcDbCircle
 10
300.0
 20
-99.99999999999996
 30
0.0
 40
97.25000000000001
100
AcDbArc
 50
137.2018438143053
 51
164.4932330045951
  0
ARC
  5
1C2
330
400
100
AcDbEntity
  8
DATA
  6
Continuous
 62
     7
100
AcDbCircle
 10
300.0
 20
-99.99999999999996
 30
0.0
 40
97.24999999999999
100
AcDbArc
 50
195.5067669954049
 51
222.7981561856949
  0
ARC
  5
1C3
330
400
100
AcDbEntity
  8
DATA
  6
Continuous
 62
     7
100
AcDbCircle
 10
300.0
 20
-99.99999999999996
 30
0.0
 40
97.25000000000008
100
AcDbArc
 50
227.2018438143053
 51
312.7981561856949
  0
ARC
  5
1C4
330
400
100
AcDbEntity
  8
DATA
  6
Continuous
 62
     7
100
AcDbCircle
 10
300.0
 20
-99.99999999999996
 30
0.0
 40
97.25000000000008
100
AcDbArc
 50
317.2018438143053
 51
42.79815618569489
  0
ARC
  5
1C5
330
400
100
AcDbEntity
  8
DATA
  6
Continuous
 62
     7
100
AcDbCircle
 10
300.0
 20
-99.99999999999996
 30
0.0
 40
97.25000000000004
100
AcDbArc
 50
47.20184381430527
 51
132.7981561856953
  0
ARC
  5
1C6
330
400
100
AcDbEntity
  8
DATA
  6
Continuous
 62
     7
100
AcDbCircle
 10
232.294525701388
 20
-32.29452570138807
 30
0.0
 40
3.999999999999996
100
AcDbArc
 50
204.080887460294
 51
65.91911253970678
  0
ARC
  5
1C7
330
400
100
AcDbEntity
  8
DATA
  6
Continuous
 62
     7
100
AcDbCircle
 10
300.0
 20
-99.99999999999996
 30
0.0
 40
89.75000000000001
100
AcDbArc
 50
196.83961279377
 51
163.1603872062301
  0
ARC
  5
1C8
330
400
100
AcDbEntity
  8
DATA
  6
Continuous
 62
     7
100
AcDbCircle
 10
232.2945257013881
 20
-167.705474298612
 30
0.0
 40
3.999999999999996
100
AcDbArc
 50
294.0808874602941
 51
155.9191125397068
  0
ARC
  5
1C9
330
400
100
AcDbEntity
  8
DATA
  6
Continuous
 62
     7
100
AcDbCircle
 10
367.705474298612
 20
-167.7054742986119
 30
0.0
 40
3.999999999999996
100
AcDbArc
 50
24.08088746029413
 51
245.9191125397066
  0
ARC
  5
1CA
330
400
100
AcDbEntity
  8
DATA
  6
Continuous
 62
     7
100
AcDbCircle
 10
367.7054742986119
 20
-32.29452570138801
 30
0.0
 40
3.999999999999996
100
AcDbArc
 50
114.0808874602941
 51
335.9191125397066
  0
ARC
  5
1CB
330
400
100
AcDbEntity
  8
DATA
  6
Continuous
 62
     7
100
AcDbCircle
 10
300.0
 20
-99.99999999999994
 30
0.0
 40
49.99999999999996
100
AcDbArc
 50
65.79344438054874
 51
150.4586394998573
  0
ARC
  5
1CC
330
400
100
AcDbEntity
  8
DATA
  6
Continuous
 62
     7
100
AcDbCircle
 10
300.0
 20
-99.99999999999994
 30
0.0
 40
49.99999999999998
100
AcDbArc
 50
209.5413605001426
 51
229.8177095444248
  0
ARC
  5
1CD
330
400
100
AcDbEntity
  8
DATA
  6
Continuous
 62
     7
100
AcDbCircle
 10
300.0
 20
-99.99999999999994
 30
0.0
 40
50.00000000000002
100
AcDbArc
 50
232.5814141892539
 51
233.5195183304061
  0
ARC
  5
1CE
330
400
100
AcDbEntity
  8
DATA
  6
Continuous
 62
     7
100
AcDbCircle
 10
300.0
 20
-99.99999999999994
 30
0.0
 40
50.0
100
AcDbArc
 50
235.8976536517069
 51
24.20655561945122
  0
LINE
  5
1CF
330
400
100
AcDbEntity
  8
DATA
  6
Continuous
 62
     7
100
AcDbLine
 10
345.60366039896
 20
-79.49863033316242
 30
0.0
 11
356.0306664075814
 21
-69.07162432454092
 31
0.0
  0
LINE
  5
1D0
330
400
100
AcDbEntity
  8
DATA
  6
Continuous
 62
     7
100
AcDbLine
 10
320.5013696668376
 20
-54.39633960103996
 30
0.0
 11
330.9283756754592
 21
-43.96933359241839
 31
0.0
  0
ARC
  5
1D1
330
400
100
AcDbEntity
  8
DATA
  6
Continuous
 62
     7
100
AcDbCircle
 10
300.0
 20
-99.99999999999996
 30
0.0
 40
41.00000000000002
100
AcDbArc
 50
226.0279999101566
 51
230.5080576235269
  0
ARC
  5
1D2
330
400
100
AcDbEntity
  8
DATA
  6
Continuous
 62
     7
100
AcDbCircle
 10
300.0
 20
-99.99999999999996
 30
0.0
 40
41.00000000000001
100
AcDbArc
 50
233.3672847001741
 51
222.8695773395695
  0
ARC
  5
1D3
330
400
100
AcDbEntity
  8
DATA
  6
Continuous
 62
     7
100
AcDbCircle
 10
300.0
 20
-99.99999999999996
 30
0.0
 40
20.0
100
AcDbArc
 50
229.1551323462473
 51
206.0606968833444
  0
ARC
  5
1D4
330
400
100
AcDbEntity
  8
DATA
  6
Continuous
 62
     7
100
AcDbCircle
 10
300.0
 20
-99.99999999999996
 30
0.0
 40
19.99999999999997
100
AcDbArc
 50
211.9884428939206
 51
223.4253633477278
  0
ARC
  5
1D5
330
400
100
AcDbEntity
  8
DATA
  6
Continuous
 62
     7
100
AcDbCircle
 10
300.0
 20
-99.99999999999996
 30
0.0
 40
14.99999999999999
100
AcDbArc
 50
229.2510471286997
 51
200.9986210945578
  0
ARC
  5
1D6
330
400
100
AcDbEntity
  8
DATA
  6
Continuous
 62
     7
100
AcDbCircle
 10
300.0
 20
-99.99999999999996
 30
0.0
 40
15.0
100
AcDbArc
 50
208.8201859590663
 51
221.6328524157
  0
LINE
  5
1D7
330
400
100
AcDbEntity
  8
DATA
  6
Continuous
 62
     7
100
AcDbLine
 10
204.5
 20
-126.0
 30
0.0
 11
204.5
 21
-74.00000000000003
 31
0.0
  0
LINE
  5
1D8
330
400
100
AcDbEntity
  8
DATA
  6
Continuous
 62
     7
100
AcDbLine
 10
256.5
 20
-126.0
 30
0.0
 11
204.5
 21
-126.0
 31
0.0
  0
LINE
  5
1D9
330
400
100
AcDbEntity
  8
DATA
  6
Continuous
 62
     7
100
AcDbLine
 10
256.5
 20
-74.00000000000003
 30
0.0
 11
256.5
 21
-126.0
 31
0.0
  0
LINE
  5
1DA
330
400
100
AcDbEntity
  8
DATA
  6
Continuous
 62
     7
100
AcDbLine
 10
204.5
 20
-74.00000000000003
 30
0.0
 11
256.5
 21
-74.00000000000003
 31
0.0
  0
LINE
  5
1DB
330
400
100
AcDbEntity
  8
DATA
  6
Continuous
 62
     7
100
AcDbLine
 10
214.0
 20
-119.25
 30
0.0
 11
214.0
 21
-80.75000000000001
 31
0.0
  0
LINE
  5
1DC
330
400
100
AcDbEntity
  8
DATA
  6
Continuous
 62
     7
100
AcDbLine
 10
243.0
 20
-119.25
 30
0.0
 11
214.0
 21
-119.25
 31
0.0
  0
LINE
  5
1DD
330
400
100
AcDbEntity
  8
DATA
  6
Continuous
 62
     7
100
AcDbLine
 10
243.0
 20
-74.00000000000003
 30
0.0
 11
243.0
 21
-126.0
 31
0.0
  0
LINE
  5
1DE
330
400
100
AcDbEntity
  8
DATA
  6
Continuous
 62
     7
100
AcDbLine
 10
214.0
 20
-80.75000000000001
 30
0.0
 11
243.0
 21
-80.75000000000001
 31
0.0
  0
LINE
  5
1DF
330
400
100
AcDbEntity
  8
DATA
  6
Continuous
 62
     7
100
AcDbLine
 10
252.0
 20
-74.00000000000003
 30
0.0
 11
252.0
 21
-126.0
 31
0.0
  0
ARC
  5
1E0
330
400
100
AcDbEntity
  8
DATA
  6
Continuous
 62
     7
100
AcDbCircle
 10
300.0
 20
-100.0
 30
0.0
 40
64.00000000000023
100
AcDbArc
 50
28.8982648194948
 51
61.10173518050519
  0
CIRCLE
  5
1E1
330
400
100
AcDbEntity
  8
DATA
  6
Continuous
 62
     7
100
AcDbCircle
 10
256.7999999524487
 20
-26.0
 30
0.0
 40
3.0
  0
CIRCLE
  5
1E2
330
400
100
AcDbEntity
  8
DATA
  6
Continuous
 62
     7
100
AcDbCircle
 10
228.6285246535144
 20
-52.58320433670758
 30
0.0
 40
3.0
  0
CIRCLE
  5
1E3
330
400
100
AcDbEntity
  8
DATA
  6
Continuous
 62
     7
100
AcDbCircle
 10
226.6045903526057
 20
-144.2193831571586
 30
0.0
 40
3.0
  0
CIRCLE
  5
1E4
330
400
100
AcDbEntity
  8
DATA
  6
Continuous
 62
     7
100
AcDbCircle
 10
253.4085087163087
 20
-171.9129539378694
 30
0.0
 40
3.0
  0
CIRCLE
  5
1E5
330
400
100
AcDbEntity
  8
DATA
  6
Continuous
 62
     7
100
AcDbCircle
 10
343.4891598835104
 20
-173.8304339465434
 30
0.0
 40
3.0
  0
CIRCLE
  5
1E6
330
400
100
AcDbEntity
  8
DATA
  6
Continuous
 62
     7
100
AcDbCircle
 10
346.3459442956186
 20
-27.92855314720112
 30
0.0
 40
3.0
  0
LINE
  5
1E7
330
400
100
AcDbEntity
  8
DATA
  6
Continuous
 62
     7
100
AcDbLine
 10
226.8785246535145
 20
-52.58320433670758
 30
0.0
 11
230.3785246535144
 21
-52.58320433670758
 31
0.0
  0
LINE
  5
1E8
330
400
100
AcDbEntity
  8
DATA
  6
Continuous
 62
     7
100
AcDbLine
 10
228.6285246535144
 20
-54.33320433670758
 30
0.0
 11
228.6285246535144
 21
-50.83320433670758
 31
0.0
  0
LINE
  5
1E9
330
400
100
AcDbEntity
  8
DATA
  6
Continuous
 62
     7
100
AcDbLine
 10
256.7999999524487
 20
-27.75
 30
0.0
 11
256.7999999524487
 21
-24.25
 31
0.0
  0
LINE
  5
1EA
330
400
100
AcDbEntity
  8
DATA
  6
Continuous
 62
     7
100
AcDbLine
 10
341.7391598835104
 20
-173.8304339465434
 30
0.0
 11
345.2391598835104
 21
-173.8304339465434
 31
0.0
  0
LINE
  5
1EB
330
400
100
AcDbEntity
  8
DATA
  6
Continuous
 62
     7
100
AcDbLine
 10
343.4891598835104
 20
-175.5804339465434
 30
0.0
 11
343.4891598835104
 21
-172.0804339465434
 31
0.0
  0
LINE
  5
1EC
330
400
100
AcDbEntity
  8
DATA
  6
Continuous
 62
     7
100
AcDbLine
 10
251.6585087163087
 20
-171.9129539378694
 30
0.0
 11
255.1585087163087
 21
-171.9129539378694
 31
0.0
  0
LINE
  5
1ED
330
400
100
AcDbEntity
  8
DATA
  6
Continuous
 62
     7
100
AcDbLine
 10
253.4085087163087
 20
-173.6629539378694
 30
0.0
 11
253.4085087163087
 21
-170.1629539378694
 31
0.0
  0
LINE
  5
1EE
330
400
100
AcDbEntity
  8
DATA
  6
Continuous
 62
     7
100
AcDbLine
 10
224.8545903526057
 20
-144.2193831571586
 30
0.0
 11
228.3545903526057
 21
-144.2193831571586
 31
0.0
  0
LINE
  5
1EF
330
400
100
AcDbEntity
  8
DATA
  6
Continuous
 62
     7
100
AcDbLine
 10
226.6045903526057
 20
-145.9693831571585
 30
0.0
 11
226.6045903526057
 21
-142.4693831571586
 31
0.0
  0
LINE
  5
1F0
330
400
100
AcDbEntity
  8
DATA
  6
Continuous
 62
     7
100
AcDbLine
 10
344.5959442956186
 20
-27.92855314720112
 30
0.0
 11
348.0959442956186
 21
-27.92855314720112
 31
0.0
  0
LINE
  5
1F1
330
400
100
AcDbEntity
  8
DATA
  6
Continuous
 62
     7
100
AcDbLine
 10
346.3459442956186
 20
-29.67855314720111
 30
0.0
 11
346.3459442956186
 21
-26.17855314720112
 31
0.0
  0
ARC
  5
1F2
330
400
100
AcDbEntity
  8
DATA
  6
Continuous
 62
     7
100
AcDbCircle
 10
308.5
 20
-35.5
 30
0.0
 40
0.7999999999999777
100
AcDbArc
 50
209.9999999999896
 51
150.0000000000103
  0
ARC
  5
1F3
330
400
100
AcDbEntity
  8
DATA
  6
Continuous
 62
     7
100
AcDbCircle
 10
294.0
 20
-35.5
 30
0.0
 40
0.8000000000000023
100
AcDbArc
 50
29.99999999998863
 51
330.0000000000114
  0
LINE
  5
1F4
330
400
100
AcDbEntity
  8
DATA
  6
Continuous
 62
     7
100
AcDbLine
 10
294.0
 20
-35.1
 30
0.0
 11
298.2999999999998
 21
-35.1
 31
0.0
  0
LINE
  5
1F5
330
400
100
AcDbEntity
  8
DATA
  6
Continuous
 62
     7
100
AcDbLine
 10
304.2000000000001
 20
-35.1
 30
0.0
 11
308.5
 21
-35.1
 31
0.0
  0
LINE
  5
1F6
330
400
100
AcDbEntity
  8
DATA
  6
Continuous
 62
     7
100
AcDbLine
 10
299.25
 20
-34.0
 30
0.0
 11
303.25
 21
-34.0
 31
0.0
  0
LINE
  5
1F7
330
400
100
AcDbEntity
  8
DATA
  6
Continuous
 62
     7
100
AcDbLine
 10
299.25
 20
-37.0
 30
0.0
 11
303.25
 21
-37.0
 31
0.0
  0
ARC
  5
1F8
330
400
100
AcDbEntity
  8
DATA
  6
Continuous
 62
     7
100
AcDbCircle
 10
299.8749999999999
 20
-35.5
 30
0.0
 40
1.624999999999989
100
AcDbArc
 50
112.6198649480395
 51
247.3801350519605
  0
ARC
  5
1F9
330
400
100
AcDbEntity
  8
DATA
  6
Continuous
 62
     7
100
AcDbCircle
 10
302.625
 20
-35.5
 30
0.0
 40
1.624999999999989
100
AcDbArc
 50
292.6198649480395
 51
67.38013505196052
  0
LINE
  5
1FA
330
400
100
AcDbEntity
  8
DATA
  6
Continuous
 62
     7
100
AcDbLine
 10
294.0
 20
-35.90000000000002
 30
0.0
 11
298.2999999999998
 21
-35.90000000000002
 31
0.0
  0
LINE
  5
1FB
330
400
100
AcDbEntity
  8
DATA
  6
Continuous
 62
     7
100
AcDbLine
 10
304.2000000000001
 20
-35.90000000000002
 30
0.0
 11
308.5
 21
-35.90000000000002
 31
0.0
  0
ARC
  5
1FC
330
400
100
AcDbEntity
  8
DATA
  6
Continuous
 62
     7
100
AcDbCircle
 10
294.0
 20
-35.5
 30
0.0
 40
0.4000000000000057
100
AcDbArc
 50
90.0
 51
270.0
  0
ARC
  5
1FD
330
400
100
AcDbEntity
  8
DATA
  6
Continuous
 62
     7
100
AcDbCircle
 10
308.5
 20
-35.5
 30
0.0
 40
0.4000000000000057
100
AcDbArc
 50
270.0
 51
90.0
  0
LINE
  5
1FE
330
400
100
AcDbEntity
  8
DATA
  6
Continuous
 62
     7
100
AcDbLine
 10
326.8847767689457
 20
-42.18024332053489
 30
0.0
 11
321.2972180386938
 21
-39.27005648186201
 31
0.0
  0
LINE
  5
1FF
330
400
100
AcDbEntity
  8
DATA
  6
Continuous
 62
     7
100
AcDbLine
 10
322.3134737601352
 20
-37.31884549669468
 30
0.0
 11
327.9010324903871
 21
-40.22903233536754
 31
0.0
  0
ARC
  5
200
330
400
100
AcDbEntity
  8
DATA
  6
Continuous
 62
     7
100
AcDbCircle
 10
321.8053458994144
 20
-38.29445098927834
 30
0.0
 40
1.100000000000016
100
AcDbArc
 50
62.48799737614582
 51
242.4879973761524
  0
ARC
  5
201
330
400
100
AcDbEntity
  8
DATA
  6
Continuous
 62
     7
100
AcDbCircle
 10
327.3929046296664
 20
-41.20463782795122
 30
0.0
 40
1.09999999999999
100
AcDbArc
 50
242.4879973761485
 51
62.48799737614845
  0
LINE
  5
202
330
400
100
AcDbEntity
  8
DATA
  6
Continuous
 62
     7
100
AcDbLine
 10
235.48217211383
 20
-143.4068376636608
 30
0.0
 11
242.2658640857035
 21
-136.7561592598633
 31
0.0
  0
LINE
  5
203
330
400
100
AcDbEntity
  8
DATA
  6
Continuous
 62
     7
100
AcDbLine
 10
254.7341359142965
 20
-163.0438407401367
 30
0.0
 11
235.48217211383
 21
-143.4068376636608
 31
0.0
  0
LINE
  5
204
330
400
100
AcDbEntity
  8
DATA
  6
Continuous
 62
     7
100
AcDbLine
 10
261.5178278861701
 20
-156.3931623363391
 30
0.0
 11
254.7341359142965
 21
-163.0438407401367
 31
0.0
  0
LINE
  5
205
330
400
100
AcDbEntity
  8
DATA
  6
Continuous
 62
     7
100
AcDbLine
 10
242.2658640857035
 20
-136.7561592598633
 30
0.0
 11
261.5178278861701
 21
-156.3931623363391
 31
0.0
  0
LINE
  5
206
330
400
100
AcDbEntity
  8
DATA
  6
Continuous
 62
     7
100
AcDbLine
 10
311.1467044841448
 20
-177.1888962169851
 30
0.0
 11
309.6939418748543
 21
-176.4500981379014
 31
0.0
  0
ARC
  5
207
330
400
100
AcDbEntity
  8
DATA
  6
Continuous
 62
     7
100
AcDbCircle
 10
287.3894926657769
 20
-165.4438018257583
 30
0.0
 40
0.8000000000000053
100
AcDbArc
 50
355.0688294988046
 51
311.020217820592
  0
ARC
  5
208
330
400
100
AcDbEntity
  8
DATA
  6
Continuous
 62
     7
100
AcDbCircle
 10
311.010507334223
 20
-177.4561981742416
 30
0.0
 40
0.7999999999999841
100
AcDbArc
 50
175.0688294988698
 51
131.0202178205921
  0
ARC
  5
209
330
400
100
AcDbEntity
  8
DATA
  6
Continuous
 62
     7
100
AcDbCircle
 10
299.2
 20
-171.4499999999999
 30
0.0
 40
11.99999999999997
100
AcDbArc
 50
160.0370056743991
 51
326.052041645067
  0
ARC
  5
20A
330
400
100
AcDbEntity
  8
DATA
  6
Continuous
 62
     7
100
AcDbCircle
 10
299.2
 20
-171.4499999999999
 30
0.0
 40
12.00000000000001
100
AcDbArc
 50
340.0370056743986
 51
146.0520416450664
  0
CIRCLE
  5
20B
330
400
100
AcDbEntity
  8
DATA
  6
Continuous
 62
     7
100
AcDbCircle
 10
299.2
 20
-171.4499999999999
 30
0.0
 40
6.650000000000005
  0
LINE
  5
20C
330
400
100
AcDbEntity
  8
DATA
  6
Continuous
 62
     7
100
AcDbLine
 10
309.7823542569085
 20
-175.8219307694697
 30
0.0
 11
305.480969070743
 21
-173.6344742004369
 31
0.0
  0
LINE
  5
20D
330
400
100
AcDbEntity
  8
DATA
  6
Continuous
 62
     7
100
AcDbLine
 10
293.7349670386476
 20
-167.6610800046277
 30
0.0
 11
289.4335818524829
 21
-165.4736234355952
 31
0.0
  0
LINE
  5
20E
330
400
100
AcDbEntity
  8
DATA
  6
Continuous
 62
     7
100
AcDbLine
 10
308.9664181475185
 20
-177.4263765644055
 30
0.0
 11
304.6650329613522
 21
-175.2389199953721
 31
0.0
  0
LINE
  5
20F
330
400
100
AcDbEntity
  8
DATA
  6
Continuous
 62
     7
100
AcDbLine
 10
292.9190309292577
 20
-169.2655257995634
 30
0.0
 11
288.6176457430926
 21
-167.0780692305307
 31
0.0
  0
ARC
  5
210
330
400
100
AcDbEntity
  8
DATA
  6
Continuous
 62
     7
100
AcDbCircle
 10
310.0090032446157
 20
-175.3762512474239
 30
0.0
 40
0.4999999999995979
100
AcDbArc
 50
243.0445236597325
 51
340.037005674446
  0
ARC
  5
211
330
400
100
AcDbEntity
  8
DATA
  6
Continuous
 62
     7
100
AcDbCircle
 10
308.7397691598117
 20
-177.8720560864509
 30
0.0
 40
0.4999999999993167
100
AcDbArc
 50
326.0520416449896
 51
63.04452365972942
  0
ARC
  5
212
330
400
100
AcDbEntity
  8
DATA
  6
Continuous
 62
     7
100
AcDbCircle
 10
288.390996755385
 20
-167.5237487525776
 30
0.0
 40
0.5000000000007548
100
AcDbArc
 50
63.04452365973046
 51
160.0370056743074
  0
ARC
  5
213
330
400
100
AcDbEntity
  8
DATA
  6
Continuous
 62
     7
100
AcDbCircle
 10
289.6602308401904
 20
-165.0279439135483
 30
0.0
 40
0.5000000000007212
100
AcDbArc
 50
146.0520416451528
 51
243.0445236597334
  0
ARC
  5
214
330
400
100
AcDbEntity
  8
DATA
  6
Continuous
 62
     7
100
AcDbCircle
 10
299.2
 20
-171.4499999999999
 30
0.0
 40
10.25000000000002
100
AcDbArc
 50
148.0071893344668
 51
158.0818579849986
  0
ARC
  5
215
330
400
100
AcDbEntity
  8
DATA
  6
Continuous
 62
     7
100
AcDbCircle
 10
299.2
 20
-171.4499999999999
 30
0.0
 40
10.25000000000001
100
AcDbArc
 50
243.0000000000001
 51
243.0000008537738
  0
ARC
  5
216
330
400
100
AcDbEntity
  8
DATA
  6
Continuous
 62
     7
100
AcDbCircle
 10
299.2
 20
-171.4499999999999
 30
0.0
 40
10.24999999999995
100
AcDbArc
 50
328.0071893344665
 51
338.0818579849985
  0
ARC
  5
217
330
400
100
AcDbEntity
  8
DATA
  6
Continuous
 62
     7
100
AcDbCircle
 10
287.3894926657769
 20
-165.4438018257583
 30
0.0
 40
0.3000000000000058
100
AcDbArc
 50
62.99999999999631
 51
243.0000000000012
  0
ARC
  5
218
330
400
100
AcDbEntity
  8
DATA
  6
Continuous
 62
     7
100
AcDbCircle
 10
311.010507334223
 20
-177.4561981742416
 30
0.0
 40
0.29999999999998
100
AcDbArc
 50
243.000000000006
 51
62.99999999999631
  0
LINE
  5
219
330
400
100
AcDbEntity
  8
DATA
  6
Continuous
 62
     7
100
AcDbLine
 10
310.8743101843012
 20
-177.7235001314981
 30
0.0
 11
309.1426550654554
 21
-176.842872100974
 31
0.0
  0
LINE
  5
21A
330
400
100
AcDbEntity
  8
DATA
  6
Continuous
 62
     7
100
AcDbLine
 10
289.2573449345444
 20
-166.0571278990259
 30
0.0
 11
287.5256898156988
 21
-165.1764998685018
 31
0.0
  0
LINE
  5
21B
330
400
100
AcDbEntity
  8
DATA
  6
Continuous
 62
     7
100
AcDbLine
 10
308.8740404435176
 20
-176.4658508410772
 30
0.0
 11
308.7091105795549
 21
-175.2761359079095
 31
0.0
  0
LINE
  5
21C
330
400
100
AcDbEntity
  8
DATA
  6
Continuous
 62
     7
100
AcDbLine
 10
309.4253272529164
 20
-176.0730768780046
 30
0.0
 11
309.3607908240481
 21
-175.6075459467757
 31
0.0
  0
LINE
  5
21D
330
400
100
AcDbEntity
  8
DATA
  6
Continuous
 62
     7
100
AcDbLine
 10
288.7060581251456
 20
-166.4499018620985
 30
0.0
 11
287.2532955158551
 21
-165.7111037830148
 31
0.0
  0
ARC
  5
21E
330
400
100
AcDbEntity
  8
DATA
  6
Continuous
 62
     7
100
AcDbCircle
 10
309.9205908625616
 20
-176.0044186158553
 30
0.0
 40
0.5000000000000869
100
AcDbArc
 50
187.8925946799951
 51
243.0445236597241
  0
ARC
  5
21F
330
400
100
AcDbEntity
  8
DATA
  6
Continuous
 62
     7
100
AcDbCircle
 10
309.3693040531627
 20
-176.3971925789278
 30
0.0
 40
0.5000000000000306
100
AcDbArc
 50
187.892594679996
 51
243.044523659727
  0
LINE
  5
220
330
400
100
AcDbEntity
  8
DATA
  6
Continuous
 62
     7
100
AcDbLine
 10
289.6908894204449
 20
-167.6238640920903
 30
0.0
 11
289.5259595564822
 21
-166.4341491589226
 31
0.0
  0
LINE
  5
221
330
400
100
AcDbEntity
  8
DATA
  6
Continuous
 62
     7
100
AcDbLine
 10
289.0392091759518
 20
-167.2924540532241
 30
0.0
 11
288.9746727470834
 21
-166.8269231219952
 31
0.0
  0
ARC
  5
222
330
400
100
AcDbEntity
  8
DATA
  6
Continuous
 62
     7
100
AcDbCircle
 10
289.0306959468371
 20
-166.502807421072
 30
0.0
 40
0.5000000000000383
100
AcDbArc
 50
7.89259468000243
 51
63.04452365972991
  0
ARC
  5
223
330
400
100
AcDbEntity
  8
DATA
  6
Continuous
 62
     7
100
AcDbCircle
 10
288.4794091374383
 20
-166.8955813841446
 30
0.0
 40
0.5000000000000383
100
AcDbArc
 50
7.89259468000243
 51
63.04452365972991
  0
LINE
  5
224
330
400
100
AcDbEntity
  8
DATA
  6
Continuous
 62
     7
100
AcDbLine
 10
338.9510062418644
 20
-160.3842693258786
 30
0.0
 11
340.5656877374032
 21
-158.8185175726287
 31
0.0
  0
LINE
  5
225
330
400
100
AcDbEntity
  8
DATA
  6
Continuous
 62
     7
100
AcDbLine
 10
357.0773967867775
 20
-142.8071633429325
 30
0.0
 11
358.6932670617684
 21
-141.2402588338504
 31
0.0
  0
ARC
  5
226
330
400
100
AcDbEntity
  8
DATA
  6
Continuous
 62
     7
100
AcDbCircle
 10
339.228869590048
 20
-160.6720052460141
 30
0.0
 40
0.8000000000000358
100
AcDbArc
 50
74.11852513975222
 51
14.11866686779799
  0
ARC
  5
227
330
400
100
AcDbEntity
  8
DATA
  6
Continuous
 62
     7
100
AcDbCircle
 10
358.971130409952
 20
-141.5279947539859
 30
0.0
 40
0.7999999999999576
100
AcDbArc
 50
254.1185251397422
 51
194.11866686756
  0
LINE
  5
228
330
400
100
AcDbEntity
  8
DATA
  6
Continuous
 62
     7
100
AcDbLine
 10
344.3248746556817
 20
-162.6951790821034
 30
0.0
 11
337.3634162949442
 21
-155.5161751475928
 31
0.0
  0
LINE
  5
229
330
400
100
AcDbEntity
  8
DATA
  6
Continuous
 62
     7
100
AcDbLine
 10
360.836583705056
 20
-146.6838248524071
 30
0.0
 11
344.3248746556817
 21
-162.6951790821034
 31
0.0
  0
LINE
  5
22A
330
400
100
AcDbEntity
  8
DATA
  6
Continuous
 62
     7
100
AcDbLine
 10
353.8751253443184
 20
-139.5048209178966
 30
0.0
 11
360.836583705056
 21
-146.6838248524071
 31
0.0
  0
LINE
  5
22B
330
400
100
AcDbEntity
  8
DATA
  6
Continuous
 62
     7
100
AcDbLine
 10
337.3634162949442
 20
-155.5161751475928
 30
0.0
 11
353.8751253443184
 21
-139.5048209178966
 31
0.0
  0
LINE
  5
22C
330
400
100
AcDbEntity
  8
DATA
  6
Continuous
 62
     7
100
AcDbLine
 10
339.5067329382316
 20
-160.9597411661495
 30
0.0
 11
341.1226032132225
 21
-159.3928366570674
 31
0.0
  0
LINE
  5
22D
330
400
100
AcDbEntity
  8
DATA
  6
Continuous
 62
     7
100
AcDbLine
 10
357.6343122625967
 20
-143.3814824273712
 30
0.0
 11
359.2489937581356
 21
-141.8157306741213
 31
0.0
  0
ARC
  5
22E
330
400
100
AcDbEntity
  8
DATA
  6
Continuous
 62
     7
100
AcDbCircle
 10
358.971130409952
 20
-141.5279947539859
 30
0.0
 40
0.4000464774867745
100
AcDbArc
 50
315.0000000000058
 51
134.0000000000001
  0
ARC
  5
22F
330
400
100
AcDbEntity
  8
DATA
  6
Continuous
 62
     7
100
AcDbCircle
 10
339.228869590048
 20
-160.6720052460141
 30
0.0
 40
0.3999390780625381
100
AcDbArc
 50
135.0
 51
314.0000000000006
  0
ARC
  5
230
330
400
100
AcDbEntity
  8
DATA
  6
Continuous
 62
     7
100
AcDbCircle
 10
362.6910143641472
 20
-81.56810504030637
 30
0.0
 40
0.8000000000000216
100
AcDbArc
 50
314.3555402192383
 51
237.0604199338253
  0
ARC
  5
231
330
400
100
AcDbEntity
  8
DATA
  6
Continuous
 62
     7
100
AcDbCircle
 10
373.8089856358528
 20
-121.0318949596936
 30
0.0
 40
0.8000000000000142
100
AcDbArc
 50
134.355540295683
 51
57.06041993384342
  0
LINE
  5
232
330
400
100
AcDbEntity
  8
DATA
  6
Continuous
 62
     7
100
AcDbLine
 10
359.25
 20
-83.64999999999998
 30
0.0
 11
362.3978568885929
 21
-83.64999999999998
 31
0.0
  0
LINE
  5
233
330
400
100
AcDbEntity
  8
DATA
  6
Continuous
 62
     7
100
AcDbLine
 10
363.4002984835248
 20
-83.64999999999998
 30
0.0
 11
377.25
 21
-83.64999999999998
 31
0.0
  0
LINE
  5
234
330
400
100
AcDbEntity
  8
DATA
  6
Continuous
 62
     7
100
AcDbLine
 10
359.25
 20
-118.95
 30
0.0
 11
359.25
 21
-116.9499999999999
 31
0.0
  0
LINE
  5
235
330
400
100
AcDbEntity
  8
DATA
  6
Continuous
 62
     7
100
AcDbLine
 10
359.25
 20
-85.64999999999995
 30
0.0
 11
359.25
 21
-83.64999999999998
 31
0.0
  0
LINE
  5
236
330
400
100
AcDbEntity
  8
DATA
  6
Continuous
 62
     7
100
AcDbLine
 10
377.25
 20
-118.95
 30
0.0
 11
374.1021431114069
 21
-118.95
 31
0.0
  0
LINE
  5
237
330
400
100
AcDbEntity
  8
DATA
  6
Continuous
 62
     7
100
AcDbLine
 10
373.0997015164752
 20
-118.95
 30
0.0
 11
359.25
 21
-118.95
 31
0.0
  0
LINE
  5
238
330
400
100
AcDbEntity
  8
DATA
  6
Continuous
 62
     7
100
AcDbLine
 10
377.25
 20
-83.64999999999998
 30
0.0
 11
377.25
 21
-85.64999999999995
 31
0.0
  0
LINE
  5
239
330
400
100
AcDbEntity
  8
DATA
  6
Continuous
 62
     7
100
AcDbLine
 10
377.25
 20
-116.9499999999999
 30
0.0
 11
377.25
 21
-118.95
 31
0.0
  0
LINE
  5
23A
330
400
100
AcDbEntity
  8
DATA
  6
Continuous
 62
     7
100
AcDbLine
 10
359.25
 20
-116.9499999999999
 30
0.0
 11
377.25
 21
-116.9499999999999
 31
0.0
  0
LINE
  5
23B
330
400
100
AcDbEntity
  8
DATA
  6
Continuous
 62
     7
100
AcDbLine
 10
359.25
 20
-85.64999999999995
 30
0.0
 11
377.25
 21
-85.64999999999995
 31
0.0
  0
LINE
  5
23C
330
400
100
AcDbEntity
  8
DATA
  6
Continuous
 62
     7
100
AcDbLine
 10
363.75
 20
-79.80000000000003
 30
0.0
 11
372.75
 21
-79.79999999999998
 31
0.0
  0
LINE
  5
23D
330
400
100
AcDbEntity
  8
DATA
  6
Continuous
 62
     7
100
AcDbLine
 10
372.75
 20
-79.79999999999998
 30
0.0
 11
372.75
 21
-85.64999999999995
 31
0.0
  0
LINE
  5
23E
330
400
100
AcDbEntity
  8
DATA
  6
Continuous
 62
     7
100
AcDbLine
 10
372.75
 20
-116.95
 30
0.0
 11
372.75
 21
-122.8000000000001
 31
0.0
  0
LINE
  5
23F
330
400
100
AcDbEntity
  8
DATA
  6
Continuous
 62
     7
100
AcDbLine
 10
363.75
 20
-79.80000000000003
 30
0.0
 11
363.75
 21
-85.64999999999995
 31
0.0
  0
LINE
  5
240
330
400
100
AcDbEntity
  8
DATA
  6
Continuous
 62
     7
100
AcDbLine
 10
363.75
 20
-116.9499999999999
 30
0.0
 11
363.75
 21
-122.7999999999999
 31
0.0
  0
LINE
  5
241
330
400
100
AcDbEntity
  8
DATA
  6
Continuous
 62
     7
100
AcDbLine
 10
363.75
 20
-122.7999999999999
 30
0.0
 11
372.75
 21
-122.8000000000001
 31
0.0
  0
LINE
  5
242
330
400
100
AcDbEntity
  8
DATA
  6
Continuous
 62
     7
100
AcDbLine
 10
375.5012282295348
 20
-106.6499999999999
 30
0.0
 11
360.9987717704657
 21
-107.1178211760989
 31
0.0
  0
ARC
  5
243
330
400
100
AcDbEntity
  8
DATA
  6
Continuous
 62
     7
100
AcDbCircle
 10
360.9987717704657
 20
-107.6178211760989
 30
0.0
 40
0.5000000000000569
100
AcDbArc
 50
90.0
 51
157.5630364829371
  0
ARC
  5
244
330
400
100
AcDbEntity
  8
DATA
  6
Continuous
 62
     7
100
AcDbCircle
 10
375.5012282295348
 20
-107.1499999999999
 30
0.0
 40
0.4999999999999716
100
AcDbArc
 50
270.0
 51
90.0
  0
LINE
  5
245
330
400
100
AcDbEntity
  8
DATA
  6
Continuous
 62
     7
100
AcDbLine
 10
375.5012282295348
 20
-105.6499999999999
 30
0.0
 11
360.9987717704657
 21
-106.1178211760989
 31
0.0
  0
ARC
  5
246
330
400
100
AcDbEntity
  8
DATA
  6
Continuous
 62
     7
100
AcDbCircle
 10
360.9987717704657
 20
-106.6178211760989
 30
0.0
 40
0.5000000000000569
100
AcDbArc
 50
90.0
 51
269.9999999999935
  0
ARC
  5
247
330
400
100
AcDbEntity
  8
DATA
  6
Continuous
 62
     7
100
AcDbCircle
 10
375.5012282295348
 20
-106.1499999999999
 30
0.0
 40
0.4999999999999716
100
AcDbArc
 50
270.0
 51
90.0
  0
LINE
  5
248
330
400
100
AcDbEntity
  8
DATA
  6
Continuous
 62
     7
100
AcDbLine
 10
375.5012282295348
 20
-104.6499999999999
 30
0.0
 11
360.9987717704657
 21
-105.1178211760989
 31
0.0
  0
ARC
  5
249
330
400
100
AcDbEntity
  8
DATA
  6
Continuous
 62
     7
100
AcDbCircle
 10
360.9987717704657
 20
-105.6178211760989
 30
0.0
 40
0.5000000000000569
100
AcDbArc
 50
90.0
 51
269.9999999999935
  0
ARC
  5
24A
330
400
100
AcDbEntity
  8
DATA
  6
Continuous
 62
     7
100
AcDbCircle
 10
375.5012282295348
 20
-105.1499999999999
 30
0.0
 40
0.4999999999999716
100
AcDbArc
 50
270.0
 51
90.0
  0
LINE
  5
24B
330
400
100
AcDbEntity
  8
DATA
  6
Continuous
 62
     7
100
AcDbLine
 10
375.5012282295348
 20
-103.6499999999999
 30
0.0
 11
360.9987717704657
 21
-104.1178211760989
 31
0.0
  0
ARC
  5
24C
330
400
100
AcDbEntity
  8
DATA
  6
Continuous
 62
     7
100
AcDbCircle
 10
360.9987717704657
 20
-104.6178211760989
 30
0.0
 40
0.5000000000000569
100
AcDbArc
 50
90.0
 51
269.9999999999935
  0
ARC
  5
24D
330
400
100
AcDbEntity
  8
DATA
  6
Continuous
 62
     7
100
AcDbCircle
 10
375.5012282295348
 20
-104.1499999999999
 30
0.0
 40
0.4999999999999716
100
AcDbArc
 50
270.0
 51
90.0
  0
LINE
  5
24E
330
400
100
AcDbEntity
  8
DATA
  6
Continuous
 62
     7
100
AcDbLine
 10
375.5012282295348
 20
-102.6499999999999
 30
0.0
 11
360.9987717704657
 21
-103.1178211760989
 31
0.0
  0
ARC
  5
24F
330
400
100
AcDbEntity
  8
DATA
  6
Continuous
 62
     7
100
AcDbCircle
 10
360.9987717704657
 20
-103.6178211760989
 30
0.0
 40
0.5000000000000569
100
AcDbArc
 50
90.0
 51
269.9999999999935
  0
ARC
  5
250
330
400
100
AcDbEntity
  8
DATA
  6
Continuous
 62
     7
100
AcDbCircle
 10
375.5012282295348
 20
-103.1499999999999
 30
0.0
 40
0.4999999999999716
100
AcDbArc
 50
270.0
 51
90.0
  0
LINE
  5
251
330
400
100
AcDbEntity
  8
DATA
  6
Continuous
 62
     7
100
AcDbLine
 10
375.5012282295348
 20
-101.6499999999999
 30
0.0
 11
360.9987717704657
 21
-102.1178211760989
 31
0.0
  0
ARC
  5
252
330
400
100
AcDbEntity
  8
DATA
  6
Continuous
 62
     7
100
AcDbCircle
 10
360.9987717704657
 20
-102.6178211760989
 30
0.0
 40
0.5000000000000569
100
AcDbArc
 50
90.0
 51
269.9999999999935
  0
ARC
  5
253
330
400
100
AcDbEntity
  8
DATA
  6
Continuous
 62
     7
100
AcDbCircle
 10
375.5012282295348
 20
-102.1499999999999
 30
0.0
 40
0.4999999999999716
100
AcDbArc
 50
270.0
 51
90.0
  0
LINE
  5
254
330
400
100
AcDbEntity
  8
DATA
  6
Continuous
 62
     7
100
AcDbLine
 10
375.5012282295348
 20
-100.6499999999999
 30
0.0
 11
360.9987717704657
 21
-101.1178211760989
 31
0.0
  0
ARC
  5
255
330
400
100
AcDbEntity
  8
DATA
  6
Continuous
 62
     7
100
AcDbCircle
 10
360.9987717704657
 20
-101.6178211760989
 30
0.0
 40
0.5000000000000569
100
AcDbArc
 50
90.0
 51
269.9999999999935
  0
ARC
  5
256
330
400
100
AcDbEntity
  8
DATA
  6
Continuous
 62
     7
100
AcDbCircle
 10
375.5012282295348
 20
-101.1499999999999
 30
0.0
 40
0.4999999999999716
100
AcDbArc
 50
270.0
 51
90.0
  0
LINE
  5
257
330
400
100
AcDbEntity
  8
DATA
  6
Continuous
 62
     7
100
AcDbLine
 10
375.5012282295348
 20
-99.64999999999996
 30
0.0
 11
360.9987717704657
 21
-100.1178211760989
 31
0.0
  0
ARC
  5
258
330
400
100
AcDbEntity
  8
DATA
  6
Continuous
 62
     7
100
AcDbCircle
 10
360.9987717704657
 20
-100.6178211760989
 30
0.0
 40
0.5000000000000569
100
AcDbArc
 50
90.0
 51
269.9999999999935
  0
ARC
  5
259
330
400
100
AcDbEntity
  8
DATA
  6
Continuous
 62
     7
100
AcDbCircle
 10
375.5012282295348
 20
-100.1499999999999
 30
0.0
 40
0.4999999999999716
100
AcDbArc
 50
270.0
 51
90.0
  0
LINE
  5
25A
330
400
100
AcDbEntity
  8
DATA
  6
Continuous
 62
     7
100
AcDbLine
 10
375.5012282295348
 20
-98.64999999999996
 30
0.0
 11
360.9987717704657
 21
-99.11782117609888
 31
0.0
  0
ARC
  5
25B
330
400
100
AcDbEntity
  8
DATA
  6
Continuous
 62
     7
100
AcDbCircle
 10
360.9987717704657
 20
-99.61782117609894
 30
0.0
 40
0.5000000000000569
100
AcDbArc
 50
90.0
 51
269.9999999999935
  0
ARC
  5
25C
330
400
100
AcDbEntity
  8
DATA
  6
Continuous
 62
     7
100
AcDbCircle
 10
375.5012282295348
 20
-99.14999999999997
 30
0.0
 40
0.4999999999999716
100
AcDbArc
 50
270.0
 51
90.0
  0
LINE
  5
25D
330
400
100
AcDbEntity
  8
DATA
  6
Continuous
 62
     7
100
AcDbLine
 10
375.5012282295348
 20
-97.64999999999997
 30
0.0
 11
360.9987717704657
 21
-98.11782117609888
 31
0.0
  0
ARC
  5
25E
330
400
100
AcDbEntity
  8
DATA
  6
Continuous
 62
     7
100
AcDbCircle
 10
360.9987717704657
 20
-98.61782117609894
 30
0.0
 40
0.5000000000000569
100
AcDbArc
 50
90.0
 51
269.9999999999935
  0
ARC
  5
25F
330
400
100
AcDbEntity
  8
DATA
  6
Continuous
 62
     7
100
AcDbCircle
 10
375.5012282295348
 20
-98.14999999999997
 30
0.0
 40
0.4999999999999716
100
AcDbArc
 50
270.0
 51
90.0
  0
LINE
  5
260
330
400
100
AcDbEntity
  8
DATA
  6
Continuous
 62
     7
100
AcDbLine
 10
375.5012282295348
 20
-96.64999999999997
 30
0.0
 11
360.9987717704657
 21
-97.11782117609889
 31
0.0
  0
ARC
  5
261
330
400
100
AcDbEntity
  8
DATA
  6
Continuous
 62
     7
100
AcDbCircle
 10
360.9987717704657
 20
-97.61782117609895
 30
0.0
 40
0.5000000000000569
100
AcDbArc
 50
90.0
 51
269.9999999999935
  0
ARC
  5
262
330
400
100
AcDbEntity
  8
DATA
  6
Continuous
 62
     7
100
AcDbCircle
 10
375.5012282295348
 20
-97.14999999999996
 30
0.0
 40
0.4999999999999716
100
AcDbArc
 50
270.0
 51
90.0
  0
LINE
  5
263
330
400
100
AcDbEntity
  8
DATA
  6
Continuous
 62
     7
100
AcDbLine
 10
375.5012282295348
 20
-95.64999999999995
 30
0.0
 11
360.9987717704657
 21
-96.11782117609889
 31
0.0
  0
ARC
  5
264
330
400
100
AcDbEntity
  8
DATA
  6
Continuous
 62
     7
100
AcDbCircle
 10
360.9987717704657
 20
-96.61782117609895
 30
0.0
 40
0.5000000000000569
100
AcDbArc
 50
90.0
 51
269.9999999999935
  0
ARC
  5
265
330
400
100
AcDbEntity
  8
DATA
  6
Continuous
 62
     7
100
AcDbCircle
 10
375.5012282295348
 20
-96.14999999999996
 30
0.0
 40
0.4999999999999716
100
AcDbArc
 50
270.0
 51
90.0
  0
LINE
  5
266
330
400
100
AcDbEntity
  8
DATA
  6
Continuous
 62
     7
100
AcDbLine
 10
375.5012282295348
 20
-94.64999999999996
 30
0.0
 11
360.9987717704657
 21
-95.11782117609888
 31
0.0
  0
ARC
  5
267
330
400
100
AcDbEntity
  8
DATA
  6
Continuous
 62
     7
100
AcDbCircle
 10
360.9987717704657
 20
-95.61782117609894
 30
0.0
 40
0.5000000000000569
100
AcDbArc
 50
90.0
 51
269.9999999999935
  0
ARC
  5
268
330
400
100
AcDbEntity
  8
DATA
  6
Continuous
 62
     7
100
AcDbCircle
 10
375.5012282295348
 20
-95.14999999999997
 30
0.0
 40
0.4999999999999716
100
AcDbArc
 50
270.0
 51
90.0
  0
LINE
  5
269
330
400
100
AcDbEntity
  8
DATA
  6
Continuous
 62
     7
100
AcDbLine
 10
375.5012282295348
 20
-93.64999999999996
 30
0.0
 11
360.9987717704657
 21
-94.11782117609888
 31
0.0
  0
ARC
  5
26A
330
400
100
AcDbEntity
  8
DATA
  6
Continuous
 62
     7
100
AcDbCircle
 10
360.9987717704657
 20
-94.61782117609894
 30
0.0
 40
0.5000000000000569
100
AcDbArc
 50
90.0
 51
269.9999999999935
  0
ARC
  5
26B
330
400
100
AcDbEntity
  8
DATA
  6
Continuous
 62
     7
100
AcDbCircle
 10
375.5012282295348
 20
-94.14999999999997
 30
0.0
 40
0.4999999999999716
100
AcDbArc
 50
270.0
 51
90.0
  0
LINE
  5
26C
330
400
100
AcDbEntity
  8
DATA
  6
Continuous
 62
     7
100
AcDbLine
 10
375.5012282295348
 20
-92.64999999999997
 30
0.0
 11
360.9987717704657
 21
-93.11782117609888
 31
0.0
  0
ARC
  5
26D
330
400
100
AcDbEntity
  8
DATA
  6
Continuous
 62
     7
100
AcDbCircle
 10
360.9987717704657
 20
-93.61782117609894
 30
0.0
 40
0.5000000000000569
100
AcDbArc
 50
90.0
 51
269.9999999999935
  0
ARC
  5
26E
330
400
100
AcDbEntity
  8
DATA
  6
Continuous
 62
     7
100
AcDbCircle
 10
375.5012282295348
 20
-93.14999999999995
 30
0.0
 40
0.4999999999999716
100
AcDbArc
 50
270.0
 51
90.0
  0
LINE
  5
26F
330
400
100
AcDbEntity
  8
DATA
  6
Continuous
 62
     7
100
AcDbLine
 10
375.5012282295348
 20
-91.64999999999997
 30
0.0
 11
360.9987717704657
 21
-92.11782117609889
 31
0.0
  0
ARC
  5
270
330
400
100
AcDbEntity
  8
DATA
  6
Continuous
 62
     7
100
AcDbCircle
 10
360.9987717704657
 20
-92.61782117609895
 30
0.0
 40
0.5000000000000569
100
AcDbArc
 50
90.0
 51
269.9999999999935
  0
ARC
  5
271
330
400
100
AcDbEntity
  8
DATA
  6
Continuous
 62
     7
100
AcDbCircle
 10
375.5012282295348
 20
-92.14999999999996
 30
0.0
 40
0.4999999999999716
100
AcDbArc
 50
270.0
 51
90.0
  0
LINE
  5
272
330
400
100
AcDbEntity
  8
DATA
  6
Continuous
 62
     7
100
AcDbLine
 10
375.5012282295348
 20
-90.64999999999995
 30
0.0
 11
360.9987717704657
 21
-91.11782117609889
 31
0.0
  0
ARC
  5
273
330
400
100
AcDbEntity
  8
DATA
  6
Continuous
 62
     7
100
AcDbCircle
 10
360.9987717704657
 20
-91.61782117609893
 30
0.0
 40
0.5000000000000569
100
AcDbArc
 50
90.0
 51
269.9999999999935
  0
ARC
  5
274
330
400
100
AcDbEntity
  8
DATA
  6
Continuous
 62
     7
100
AcDbCircle
 10
375.5012282295348
 20
-91.14999999999996
 30
0.0
 40
0.4999999999999716
100
AcDbArc
 50
270.0
 51
90.0
  0
LINE
  5
275
330
400
100
AcDbEntity
  8
DATA
  6
Continuous
 62
     7
100
AcDbLine
 10
375.5012282295348
 20
-89.64999999999996
 30
0.0
 11
360.9987717704657
 21
-90.11782117609888
 31
0.0
  0
ARC
  5
276
330
400
100
AcDbEntity
  8
DATA
  6
Continuous
 62
     7
100
AcDbCircle
 10
360.9987717704657
 20
-90.61782117609894
 30
0.0
 40
0.5000000000000569
100
AcDbArc
 50
90.0
 51
269.9999999999935
  0
ARC
  5
277
330
400
100
AcDbEntity
  8
DATA
  6
Continuous
 62
     7
100
AcDbCircle
 10
375.5012282295348
 20
-90.14999999999997
 30
0.0
 40
0.4999999999999716
100
AcDbArc
 50
270.0
 51
90.0
  0
LINE
  5
278
330
400
100
AcDbEntity
  8
DATA
  6
Continuous
 62
     7
100
AcDbLine
 10
375.5012282295348
 20
-88.64999999999996
 30
0.0
 11
360.9987717704657
 21
-89.11782117609888
 31
0.0
  0
ARC
  5
279
330
400
100
AcDbEntity
  8
DATA
  6
Continuous
 62
     7
100
AcDbCircle
 10
360.9987717704657
 20
-89.61782117609894
 30
0.0
 40
0.5000000000000569
100
AcDbArc
 50
90.0
 51
269.9999999999935
  0
ARC
  5
27A
330
400
100
AcDbEntity
  8
DATA
  6
Continuous
 62
     7
100
AcDbCircle
 10
375.5012282295348
 20
-89.14999999999997
 30
0.0
 40
0.4999999999999716
100
AcDbArc
 50
270.0
 51
90.0
  0
LINE
  5
27B
330
400
100
AcDbEntity
  8
DATA
  6
Continuous
 62
     7
100
AcDbLine
 10
375.5012282295348
 20
-87.64999999999997
 30
0.0
 11
360.9987717704657
 21
-88.11782117609888
 31
0.0
  0
ARC
  5
27C
330
400
100
AcDbEntity
  8
DATA
  6
Continuous
 62
     7
100
AcDbCircle
 10
360.9987717704657
 20
-88.61782117609894
 30
0.0
 40
0.5000000000000569
100
AcDbArc
 50
90.0
 51
269.9999999999935
  0
ARC
  5
27D
330
400
100
AcDbEntity
  8
DATA
  6
Continuous
 62
     7
100
AcDbCircle
 10
375.5012282295348
 20
-88.14999999999995
 30
0.0
 40
0.4999999999999716
100
AcDbArc
 50
270.0
 51
90.0
  0
LINE
  5
27E
330
400
100
AcDbEntity
  8
DATA
  6
Continuous
 62
     7
100
AcDbLine
 10
375.5012282295348
 20
-86.64999999999997
 30
0.0
 11
360.9987717704657
 21
-87.11782117609889
 31
0.0
  0
ARC
  5
27F
330
400
100
AcDbEntity
  8
DATA
  6
Continuous
 62
     7
100
AcDbCircle
 10
360.9987717704657
 20
-87.61782117609895
 30
0.0
 40
0.5000000000000569
100
AcDbArc
 50
90.0
 51
269.9999999999935
  0
ARC
  5
280
330
400
100
AcDbEntity
  8
DATA
  6
Continuous
 62
     7
100
AcDbCircle
 10
375.5012282295348
 20
-87.14999999999996
 30
0.0
 40
0.4999999999999716
100
AcDbArc
 50
270.0
 51
90.0
  0
LINE
  5
281
330
400
100
AcDbEntity
  8
DATA
  6
Continuous
 62
     7
100
AcDbLine
 10
375.5012282295348
 20
-85.64999999999995
 30
0.0
 11
360.9987717704657
 21
-86.11782117609889
 31
0.0
  0
ARC
  5
282
330
400
100
AcDbEntity
  8
DATA
  6
Continuous
 62
     7
100
AcDbCircle
 10
360.9987717704657
 20
-86.61782117609893
 30
0.0
 40
0.5000000000000569
100
AcDbArc
 50
90.0
 51
269.9999999999935
  0
ARC
  5
283
330
400
100
AcDbEntity
  8
DATA
  6
Continuous
 62
     7
100
AcDbCircle
 10
375.5012282295348
 20
-86.14999999999996
 30
0.0
 40
0.4999999999999716
100
AcDbArc
 50
270.0
 51
90.0
  0
ARC
  5
284
330
400
100
AcDbEntity
  8
DATA
  6
Continuous
 62
     7
100
AcDbCircle
 10
360.9987717704657
 20
-86.15
 30
0.0
 40
0.5000000000000569
100
AcDbArc
 50
90.0
 51
207.8929570630371
  0
LINE
  5
285
330
400
100
AcDbEntity
  8
DATA
  6
Continuous
 62
     7
100
AcDbLine
 10
375.5012282295348
 20
-107.6499999999999
 30
0.0
 11
371.4756141147672
 21
-107.7798585198311
 31
0.0
  0
ARC
  5
286
330
400
100
AcDbEntity
  8
DATA
  6
Continuous
 62
     7
100
AcDbCircle
 10
375.5012282295348
 20
-108.1499999999999
 30
0.0
 40
0.4999999999999878
100
AcDbArc
 50
26.85843755217285
 51
90.0
  0
LINE
  5
287
330
400
100
AcDbEntity
  8
DATA
  6
Continuous
 62
     7
100
AcDbLine
 10
359.75
 20
-107.4016129032258
 30
0.0
 11
376.75
 21
-107.9499999999999
 31
0.0
  0
ARC
  5
288
330
400
100
AcDbEntity
  8
DATA
  6
Continuous
 62
     7
100
AcDbCircle
 10
359.75
 20
-107.9016129032258
 30
0.0
 40
0.5
100
AcDbArc
 50
90.0
 51
270.0
  0
ARC
  5
289
330
400
100
AcDbEntity
  8
DATA
  6
Continuous
 62
     7
100
AcDbCircle
 10
376.75
 20
-108.4499999999999
 30
0.0
 40
0.5
100
AcDbArc
 50
270.0
 51
90.0
  0
LINE
  5
28A
330
400
100
AcDbEntity
  8
DATA
  6
Continuous
 62
     7
100
AcDbLine
 10
376.75
 20
-108.9499999999999
 30
0.0
 11
359.75
 21
-108.4016129032258
 31
0.0
  0
ARC
  5
28B
330
400
100
AcDbEntity
  8
DATA
  6
Continuous
 62
     7
100
AcDbCircle
 10
359.75
 20
-108.9016129032258
 30
0.0
 40
0.5
100
AcDbArc
 50
90.0
 51
270.0
  0
ARC
  5
28C
330
400
100
AcDbEntity
  8
DATA
  6
Continuous
 62
     7
100
AcDbCircle
 10
376.75
 20
-109.4499999999999
 30
0.0
 40
0.5
100
AcDbArc
 50
270.0
 51
90.0
  0
LINE
  5
28D
330
400
100
AcDbEntity
  8
DATA
  6
Continuous
 62
     7
100
AcDbLine
 10
376.75
 20
-109.9499999999999
 30
0.0
 11
359.75
 21
-109.4016129032258
 31
0.0
  0
ARC
  5
28E
330
400
100
AcDbEntity
  8
DATA
  6
Continuous
 62
     7
100
AcDbCircle
 10
359.75
 20
-109.9016129032258
 30
0.0
 40
0.5
100
AcDbArc
 50
90.0
 51
270.0
  0
ARC
  5
28F
330
400
100
AcDbEntity
  8
DATA
  6
Continuous
 62
     7
100
AcDbCircle
 10
376.75
 20
-110.4499999999999
 30
0.0
 40
0.5
100
AcDbArc
 50
270.0
 51
90.0
  0
LINE
  5
290
330
400
100
AcDbEntity
  8
DATA
  6
Continuous
 62
     7
100
AcDbLine
 10
376.75
 20
-110.9499999999999
 30
0.0
 11
359.75
 21
-110.4016129032258
 31
0.0
  0
ARC
  5
291
330
400
100
AcDbEntity
  8
DATA
  6
Continuous
 62
     7
100
AcDbCircle
 10
359.75
 20
-110.9016129032258
 30
0.0
 40
0.5
100
AcDbArc
 50
90.0
 51
270.0
  0
ARC
  5
292
330
400
100
AcDbEntity
  8
DATA
  6
Continuous
 62
     7
100
AcDbCircle
 10
376.75
 20
-111.4499999999999
 30
0.0
 40
0.5
100
AcDbArc
 50
270.0
 51
90.0
  0
LINE
  5
293
330
400
100
AcDbEntity
  8
DATA
  6
Continuous
 62
     7
100
AcDbLine
 10
376.75
 20
-111.9499999999999
 30
0.0
 11
359.75
 21
-111.4016129032258
 31
0.0
  0
ARC
  5
294
330
400
100
AcDbEntity
  8
DATA
  6
Continuous
 62
     7
100
AcDbCircle
 10
359.75
 20
-111.9016129032258
 30
0.0
 40
0.5
100
AcDbArc
 50
90.0
 51
270.0
  0
ARC
  5
295
330
400
100
AcDbEntity
  8
DATA
  6
Continuous
 62
     7
100
AcDbCircle
 10
376.75
 20
-112.4499999999999
 30
0.0
 40
0.5
100
AcDbArc
 50
270.0
 51
90.0
  0
LINE
  5
296
330
400
100
AcDbEntity
  8
DATA
  6
Continuous
 62
     7
100
AcDbLine
 10
376.75
 20
-112.9499999999999
 30
0.0
 11
359.75
 21
-112.4016129032258
 31
0.0
  0
ARC
  5
297
330
400
100
AcDbEntity
  8
DATA
  6
Continuous
 62
     7
100
AcDbCircle
 10
359.75
 20
-112.9016129032258
 30
0.0
 40
0.5
100
AcDbArc
 50
90.0
 51
270.0
  0
ARC
  5
298
330
400
100
AcDbEntity
  8
DATA
  6
Continuous
 62
     7
100
AcDbCircle
 10
376.75
 20
-113.4499999999999
 30
0.0
 40
0.5
100
AcDbArc
 50
270.0
 51
90.0
  0
LINE
  5
299
330
400
100
AcDbEntity
  8
DATA
  6
Continuous
 62
     7
100
AcDbLine
 10
376.75
 20
-113.9499999999999
 30
0.0
 11
359.75
 21
-113.4016129032258
 31
0.0
  0
ARC
  5
29A
330
400
100
AcDbEntity
  8
DATA
  6
Continuous
 62
     7
100
AcDbCircle
 10
359.75
 20
-113.9016129032258
 30
0.0
 40
0.5
100
AcDbArc
 50
90.0
 51
270.0
  0
ARC
  5
29B
330
400
100
AcDbEntity
  8
DATA
  6
Continuous
 62
     7
100
AcDbCircle
 10
376.75
 20
-114.4499999999999
 30
0.0
 40
0.5
100
AcDbArc
 50
270.0
 51
90.0
  0
LINE
  5
29C
330
400
100
AcDbEntity
  8
DATA
  6
Continuous
 62
     7
100
AcDbLine
 10
376.75
 20
-114.9499999999999
 30
0.0
 11
359.75
 21
-114.4016129032258
 31
0.0
  0
ARC
  5
29D
330
400
100
AcDbEntity
  8
DATA
  6
Continuous
 62
     7
100
AcDbCircle
 10
359.75
 20
-114.9016129032258
 30
0.0
 40
0.5
100
AcDbArc
 50
90.0
 51
270.0
  0
ARC
  5
29E
330
400
100
AcDbEntity
  8
DATA
  6
Continuous
 62
     7
100
AcDbCircle
 10
376.75
 20
-115.4499999999999
 30
0.0
 40
0.5
100
AcDbArc
 50
270.0
 51
90.0
  0
LINE
  5
29F
330
400
100
AcDbEntity
  8
DATA
  6
Continuous
 62
     7
100
AcDbLine
 10
376.75
 20
-115.9499999999999
 30
0.0
 11
359.75
 21
-115.4016129032258
 31
0.0
  0
ARC
  5
2A0
330
400
100
AcDbEntity
  8
DATA
  6
Continuous
 62
     7
100
AcDbCircle
 10
359.75
 20
-115.9016129032258
 30
0.0
 40
0.5
100
AcDbArc
 50
90.0
 51
270.0
  0
ARC
  5
2A1
330
400
100
AcDbEntity
  8
DATA
  6
Continuous
 62
     7
100
AcDbCircle
 10
376.75
 20
-116.4499999999999
 30
0.0
 40
0.5
100
AcDbArc
 50
270.0
 51
90.0
  0
LINE
  5
2A2
330
400
100
AcDbEntity
  8
DATA
  6
Continuous
 62
     7
100
AcDbLine
 10
376.75
 20
-116.9499999999999
 30
0.0
 11
359.75
 21
-116.4016129032258
 31
0.0
  0
ARC
  5
2A3
330
400
100
AcDbEntity
  8
DATA
  6
Continuous
 62
     7
100
AcDbCircle
 10
359.75
 20
-116.4499999999999
 30
0.0
 40
0.5000000000000226
100
AcDbArc
 50
146.743568714043
 51
270.0
  0
LINE
  5
2A4
330
400
100
AcDbEntity
  8
DATA
  6
Continuous
 62
     7
100
AcDbLine
 10
362.25
 20
-85.64999999999995
 30
0.0
 11
362.25
 21
-83.64999999999998
 31
0.0
  0
LINE
  5
2A5
330
400
100
AcDbEntity
  8
DATA
  6
Continuous
 62
     7
100
AcDbLine
 10
374.25
 20
-85.64999999999995
 30
0.0
 11
374.25
 21
-83.64999999999998
 31
0.0
  0
LINE
  5
2A6
330
400
100
AcDbEntity
  8
DATA
  6
Continuous
 62
     7
100
AcDbLine
 10
374.25
 20
-116.9499999999999
 30
0.0
 11
374.25
 21
-118.95
 31
0.0
  0
LINE
  5
2A7
330
400
100
AcDbEntity
  8
DATA
  6
Continuous
 62
     7
100
AcDbLine
 10
362.25
 20
-118.95
 30
0.0
 11
362.25
 21
-116.9499999999999
 31
0.0
  0
LINE
  5
2A8
330
400
100
AcDbEntity
  8
DATA
  6
Continuous
 62
     7
100
AcDbLine
 10
363.1885651912139
 20
-81.5186765618222
 30
0.0
 11
363.5989856358528
 21
-85.64999999999995
 31
0.0
  0
LINE
  5
2A9
330
400
100
AcDbEntity
  8
DATA
  6
Continuous
 62
     7
100
AcDbLine
 10
362.1935236457801
 20
-81.61813488278566
 30
0.0
 11
362.5989856358529
 21
-85.64999999999995
 31
0.0
  0
LINE
  5
2AA
330
400
100
AcDbEntity
  8
DATA
  6
Continuous
 62
     7
100
AcDbLine
 10
373.3114348087861
 20
-121.0813234381778
 30
0.0
 11
372.9010143641473
 21
-116.9499999999999
 31
0.0
  0
LINE
  5
2AB
330
400
100
AcDbEntity
  8
DATA
  6
Continuous
 62
     7
100
AcDbLine
 10
374.30647635422
 20
-120.9818651172144
 30
0.0
 11
373.9010143641473
 21
-116.9499999999999
 31
0.0
  0
ARC
  5
2AC
330
400
100
AcDbEntity
  8
DATA
  6
Continuous
 62
     7
100
AcDbCircle
 10
373.8089856358528
 20
-121.0318949596936
 30
0.0
 40
0.4999999999999928
100
AcDbArc
 50
185.6733527863887
 51
5.742607411650594
  0
ARC
  5
2AD
330
400
100
AcDbEntity
  8
DATA
  6
Continuous
 62
     7
100
AcDbCircle
 10
362.6910143641472
 20
-81.56810504030637
 30
0.0
 40
0.4999999999999928
100
AcDbArc
 50
5.673352786388658
 51
185.7426074116506
  0
CIRCLE
  5
2AE
330
400
100
AcDbEntity
  8
DATA
  6
Continuous
 62
     7
100
AcDbCircle
 10
366.4978445071621
 20
-50.49784450716211
 30
0.0
 40
1.0
  0
CIRCLE
  5
2AF
330
400
100
AcDbEntity
  8
DATA
  6
Continuous
 62
     7
100
AcDbCircle
 10
352.0021554928379
 20
-36.00215549283789
 30
0.0
 40
1.0
  0
ARC
  5
2B0
330
400
100
AcDbEntity
  8
DATA
  6
Continuous
 62
     7
100
AcDbCircle
 10
300.0
 20
-99.99999999999996
 30
0.0
 40
55.0
100
AcDbArc
 50
26.17206078330712
 51
63.82793921669311
  0
LINE
  5
2B1
330
400
100
AcDbEntity
  8
DATA
  6
Continuous
 62
     7
100
AcDbLine
 10
330.8507530216938
 20
-52.99043946055649
 30
0.0
 11
336.9285980761422
 21
-47.72879718113657
 31
0.0
  0
LINE
  5
2B2
330
400
100
AcDbEntity
  8
DATA
  6
Continuous
 62
     7
100
AcDbLine
 10
332.1628710796748
 20
-54.49985862100203
 30
0.0
 11
338.5855508928917
 21
-48.93968995107766
 31
0.0
  0
LINE
  5
2B3
330
400
100
AcDbEntity
  8
DATA
  6
Continuous
 62
     7
100
AcDbLine
 10
345.6768464731265
 20
-67.84026166449504
 30
0.0
 11
351.7699513234898
 21
-62.37192351496657
 31
0.0
  0
LINE
  5
2B4
330
400
100
AcDbEntity
  8
DATA
  6
Continuous
 62
     7
100
AcDbLine
 10
347.0151076858442
 20
-69.32655131544982
 30
0.0
 11
352.9283674310578
 21
-64.01961755229695
 31
0.0
  0
LINE
  5
2B5
330
400
100
AcDbEntity
  8
DATA
  6
Continuous
 62
     7
100
AcDbLine
 10
347.4186488115244
 20
-71.94601867763953
 30
0.0
 11
343.7848410750951
 21
-66.55663639998778
 31
0.0
  0
LINE
  5
2B6
330
400
100
AcDbEntity
  8
DATA
  6
Continuous
 62
     7
100
AcDbLine
 10
345.4429656742029
 20
-65.43821723590365
 30
0.0
 11
343.7848410750951
 21
-66.55663639998778
 31
0.0
  0
LINE
  5
2B7
330
400
100
AcDbEntity
  8
DATA
  6
Continuous
 62
     7
100
AcDbLine
 10
349.0766744741455
 20
-70.82766624705829
 30
0.0
 11
347.4186488115244
 21
-71.94601867763953
 31
0.0
  0
ARC
  5
2B8
330
400
100
AcDbEntity
  8
DATA
  6
Continuous
 62
     7
100
AcDbCircle
 10
344.3691664565382
 20
-68.12199593966482
 30
0.0
 40
2.890625000000064
100
AcDbArc
 50
28.6319897511188
 51
68.19539874887571
  0
ARC
  5
2B9
330
400
100
AcDbEntity
  8
DATA
  6
Continuous
 62
     7
100
AcDbCircle
 10
346.1860703247528
 20
-70.81668707849075
 30
0.0
 40
2.890625000000119
100
AcDbArc
 50
359.7823787125639
 51
52.98190007932948
  0
ARC
  5
2BA
330
400
100
AcDbEntity
  8
DATA
  6
Continuous
 62
     7
100
AcDbCircle
 10
346.3459770794852
 20
-68.58340648997246
 30
0.0
 40
0.9999999999999699
100
AcDbArc
 50
131.9999999999975
 51
312.0000000000011
  0
LINE
  5
2BB
330
400
100
AcDbEntity
  8
DATA
  6
Continuous
 62
     7
100
AcDbLine
 10
333.4454168808679
 20
-56.21662723655465
 30
0.0
 11
328.0561122353728
 21
-52.58270436477482
 31
0.0
  0
LINE
  5
2BC
330
400
100
AcDbEntity
  8
DATA
  6
Continuous
 62
     7
100
AcDbLine
 10
329.1739845415193
 20
-50.92421103650735
 30
0.0
 11
328.0561122353728
 21
-52.58270436477482
 31
0.0
  0
LINE
  5
2BD
330
400
100
AcDbEntity
  8
DATA
  6
Continuous
 62
     7
100
AcDbLine
 10
334.5632224861412
 20
-54.55823286677509
 30
0.0
 11
333.4454168808679
 21
-56.21662723655465
 31
0.0
  0
ARC
  5
2BE
330
400
100
AcDbEntity
  8
DATA
  6
Continuous
 62
     7
100
AcDbCircle
 10
329.1846896724293
 20
-53.81481621376553
 30
0.0
 40
2.89062500000012
100
AcDbArc
 50
31.58176571136245
 51
90.21429308776077
  0
ARC
  5
2BF
330
400
100
AcDbEntity
  8
DATA
  6
Continuous
 62
     7
100
AcDbCircle
 10
331.8793419951769
 20
-55.63177764965548
 30
0.0
 40
2.89062500000013
100
AcDbArc
 50
21.80127305144797
 51
54.28941075611898
  0
ARC
  5
2C0
330
400
100
AcDbEntity
  8
DATA
  6
Continuous
 62
     7
100
AcDbCircle
 10
331.5068120506842
 20
-53.74514904077927
 30
0.0
 40
0.9999999999999985
100
AcDbArc
 50
131.0000000000004
 51
311.0000000000004
  0
TEXT
  5
2C1
330
400
100
AcDbEntity
  8
DATA
 62
     7
100
AcDbText
 10
329.5154141193192
 20
-18.27056717320024
 30
0.0
 40
4.343576388888888
  1
CONTROL 26-DT
 50
175.0
 41
0.7
 11
329.1368464929643
 21
-22.59761494256784
 31
0.0
100
AcDbText
 73
     3
  0
TEXT
  5
2C2
330
400
100
AcDbEntity
  8
DATA
 62
     7
100
AcDbText
 10
302.774
 20
-33.02714822695605
 30
0.0
 40
3.257682291666666
  1
F1
 50
90.0
 41
0.7
 11
299.5163177083333
 21
-33.02714822695605
 31
0.0
100
AcDbText
 73
     3
  0
TEXT
  5
2C3
330
400
100
AcDbEntity
  8
DATA
 62
     7
100
AcDbText
 10
271.1520117780584
 20
-154.1122955642404
 30
0.0
 40
3.257682291666666
  1
T+
 50
333.9999999999999
 41
0.7
 11
272.5800857001307
 21
-151.1843101157561
 31
0.0
100
AcDbText
 73
     3
  0
TEXT
  5
2C4
330
400
100
AcDbEntity
  8
DATA
 62
     7
100
AcDbText
 10
260.8069381705287
 20
-176.8714575008056
 30
0.0
 40
3.257682291666666
  1
T-
 50
333.9999999999999
 41
0.7
 11
262.2350120926011
 21
-173.9434720523213
 31
0.0
100
AcDbText
 73
     3
  0
TEXT
  5
2C5
330
400
100
AcDbEntity
  8
DATA
 62
     7
100
AcDbText
 10
361.075985411284
 20
-42.92072394222745
 30
0.0
 40
3.257682291666666
  1
W
 50
135.0
 41
0.7
 11
358.7724561718952
 21
-45.22425318161628
 31
0.0
100
AcDbText
 73
     3
  0
TEXT
  5
2C6
330
400
100
AcDbEntity
  8
DATA
 62
     7
100
AcDbText
 10
356.8333447241646
 20
-38.67808325510817
 30
0.0
 40
3.257682291666666
  1
+
 50
135.0
 41
0.7
 11
354.5298154847758
 21
-40.981612494497
 31
0.0
100
AcDbText
 73
     3
  0
TEXT
  5
2C7
330
400
100
AcDbEntity
  8
DATA
 62
     7
100
AcDbText
 10
365.3186260984033
 20
-47.16336462934675
 30
0.0
 40
3.257682291666666
  1
-
 50
135.0
 41
0.7
 11
363.0150968590145
 21
-49.46689386873558
 31
0.0
100
AcDbText
 73
     3
  0
LINE
  5
2C8
330
400
100
AcDbEntity
  8
DATA
  6
Continuous
 62
     7
100
AcDbLine
 10
428.4725940551281
 20
132.4496405645997
 30
0.0
 11
202.4725940551278
 21
132.4496405645997
 31
0.0
  0
LINE
  5
2C9
330
400
100
AcDbEntity
  8
DATA
  6
Continuous
 62
     7
100
AcDbLine
 10
202.4725940551278
 20
84.450572762951
 30
0.0
 11
202.4725940551278
 21
132.4496405645997
 31
0.0
  0
LINE
  5
2CA
330
400
100
AcDbEntity
  8
DATA
  6
Continuous
 62
     7
100
AcDbLine
 10
428.4725940551281
 20
84.450572762951
 30
0.0
 11
202.4725940551278
 21
84.450572762951
 31
0.0
  0
LINE
  5
2CB
330
400
100
AcDbEntity
  8
DATA
  6
Continuous
 62
     7
100
AcDbLine
 10
428.4725940551281
 20
84.450572762951
 30
0.0
 11
428.4725940551281
 21
132.4496405645997
 31
0.0
  0
LINE
  5
2CC
330
400
100
AcDbEntity
  8
DATA
  6
Continuous
 62
     7
100
AcDbLine
 10
382.4725940551281
 20
100.4502620301671
 30
0.0
 11
382.4725940551281
 21
132.4496405645996
 31
0.0
  0
LINE
  5
2CD
330
400
100
AcDbEntity
  8
DATA
  6
Continuous
 62
     7
100
AcDbLine
 10
388.4725940551281
 20
100.4502620301671
 30
0.0
 11
388.4725940551281
 21
132.4496405645997
 31
0.0
  0
LINE
  5
2CE
330
400
100
AcDbEntity
  8
DATA
  6
Continuous
 62
     7
100
AcDbLine
 10
428.37287769475
 20
116.4499512973835
 30
0.0
 11
202.3728776947497
 21
116.4499512973834
 31
0.0
  0
LINE
  5
2CF
330
400
100
AcDbEntity
  8
DATA
  6
Continuous
 62
     7
100
AcDbLine
 10
428.2731613343713
 20
100.4502620301671
 30
0.0
 11
202.2731613343714
 21
100.4502620301672
 31
0.0
  0
LINE
  5
2D0
330
400
100
AcDbEntity
  8
DATA
  6
Continuous
 62
     7
100
AcDbLine
 10
232.4725940551279
 20
100.4502620301671
 30
0.0
 11
232.4725940551279
 21
132.4496405645997
 31
0.0
  0
LINE
  5
2D1
330
400
100
AcDbEntity
  8
DATA
  6
Continuous
 62
     7
100
AcDbLine
 10
262.4725940551278
 20
100.4502620301671
 30
0.0
 11
262.4725940551278
 21
132.4496405645998
 31
0.0
  0
LINE
  5
2D2
330
400
100
AcDbEntity
  8
DATA
  6
Continuous
 62
     7
100
AcDbLine
 10
292.4725940551281
 20
100.4502620301671
 30
0.0
 11
292.4725940551281
 21
132.4496405645999
 31
0.0
  0
LINE
  5
2D3
330
400
100
AcDbEntity
  8
DATA
  6
Continuous
 62
     7
100
AcDbLine
 10
322.4725940551281
 20
100.4502620301671
 30
0.0
 11
322.4725940551281
 21
132.4496405645998
 31
0.0
  0
LINE
  5
2D4
330
400
100
AcDbEntity
  8
DATA
  6
Continuous
 62
     7
100
AcDbLine
 10
352.4725940551281
 20
100.4502620301671
 30
0.0
 11
352.4725940551281
 21
132.4496405645997
 31
0.0
  0
TEXT
  5
2D5
330
400
100
AcDbEntity
  8
DATA
 62
     7
100
AcDbText
 10
206.4725136527165
 20
120.3857959309917
 30
0.0
 40
8.687152777777779
  1
7.5W
 50
360.0
 41
0.7
 11
206.4725136527165
 21
129.0729487087695
 31
0.0
100
AcDbText
 73
     3
  0
TEXT
  5
2D6
330
400
100
AcDbEntity
  8
DATA
 62
     7
100
AcDbText
 10
237.6014025416056
 20
120.3857959309916
 30
0.0
 40
8.687152777777779
  1
15W
 50
360.0
 41
0.7
 11
237.6014025416056
 21
129.0729487087694
 31
0.0
100
AcDbText
 73
     3
  0
TEXT
  5
2D7
330
400
100
AcDbEntity
  8
DATA
 62
     7
100
AcDbText
 10
267.6014025416053
 20
120.3857959309916
 30
0.0
 40
8.687152777777779
  1
30W
 50
360.0
 41
0.7
 11
267.6014025416053
 21
129.0729487087694
 31
0.0
100
AcDbText
 73
     3
  0
TEXT
  5
2D8
330
400
100
AcDbEntity
  8
DATA
 62
     7
100
AcDbText
 10
297.6014025416053
 20
120.3857959309916
 30
0.0
 40
8.687152777777779
  1
60W
 50
360.0
 41
0.7
 11
297.6014025416053
 21
129.0729487087694
 31
0.0
100
AcDbText
 73
     3
  0
TEXT
  5
2D9
330
400
100
AcDbEntity
  8
DATA
 62
     7
100
AcDbText
 10
355.512958097161
 20
120.3857959309917
 30
0.0
 40
8.687152777777779
  1
COM
 50
360.0
 41
0.7
 11
355.512958097161
 21
129.0729487087695
 31
0.0
100
AcDbText
 73
     3
  0
TEXT
  5
2DA
330
400
100
AcDbEntity
  8
DATA
 62
     7
100
AcDbText
 10
399.2222914304942
 20
120.3857959309916
 30
0.0
 40
8.687152777777779
  1
70V
 50
360.0
 41
0.7
 11
399.2222914304942
 21
129.0729487087694
 31
0.0
100
AcDbText
 73
     3
  0
TEXT
  5
2DB
330
400
100
AcDbEntity
  8
DATA
 62
     7
100
AcDbText
 10
207.5016861812272
 20
104.3861066637754
 30
0.0
 40
8.687152777777779
  1
15W
 50
360.0
 41
0.7
 11
207.5016861812272
 21
113.0732594415532
 31
0.0
100
AcDbText
 73
     3
  0
TEXT
  5
2DC
330
400
100
AcDbEntity
  8
DATA
 62
     7
100
AcDbText
 10
237.5016861812273
 20
104.3861066637753
 30
0.0
 40
8.687152777777779
  1
30W
 50
360.0
 41
0.7
 11
237.5016861812273
 21
113.0732594415531
 31
0.0
100
AcDbText
 73
     3
  0
TEXT
  5
2DD
330
400
100
AcDbEntity
  8
DATA
 62
     7
100
AcDbText
 10
267.5016861812273
 20
104.3861066637753
 30
0.0
 40
8.687152777777779
  1
60W
 50
360.0
 41
0.7
 11
267.5016861812273
 21
113.0732594415531
 31
0.0
100
AcDbText
 73
     3
  0
TEXT
  5
2DE
330
400
100
AcDbEntity
  8
DATA
 62
     7
100
AcDbText
 10
297.3323528478937
 20
104.3861066637754
 30
0.0
 40
8.687152777777779
  1
N/A
 50
360.0
 41
0.7
 11
297.3323528478937
 21
113.0732594415532
 31
0.0
100
AcDbText
 73
     3
  0
TEXT
  5
2DF
330
400
100
AcDbEntity
  8
DATA
 62
     7
100
AcDbText
 10
355.4132417367824
 20
104.3861066637755
 30
0.0
 40
8.687152777777779
  1
COM
 50
360.0
 41
0.7
 11
355.4132417367824
 21
113.0732594415532
 31
0.0
100
AcDbText
 73
     3
  0
TEXT
  5
2E0
330
400
100
AcDbEntity
  8
DATA
 62
     7
100
AcDbText
 10
396.3003528478937
 20
104.3861066637753
 30
0.0
 40
8.687152777777779
  1
100V
 50
360.0
 41
0.7
 11
396.3003528478937
 21
113.0732594415531
 31
0.0
100
AcDbText
 73
     3
  0
TEXT
  5
2E1
330
400
100
AcDbEntity
  8
DATA
 62
     7
100
AcDbText
 10
273.6237475986268
 20
88.38641739655923
 30
0.0
 40
8.687152777777779
  1
HOOKUP CHART
 50
360.0
 41
0.7
 11
273.6237475986268
 21
97.073570174337
 31
0.0
100
AcDbText
 73
     3
  0
LINE
  5
2E2
330
400
100
AcDbEntity
  8
DATA
  6
Continuous
 62
     7
100
AcDbLine
 10
387.9797962081981
 20
133.8008001369185
 30
0.0
 11
207.9797962081981
 21
133.8008001369184
 31
0.0
  0
CIRCLE
  5
2E3
330
400
100
AcDbEntity
  8
DATA
  6
Continuous
 62
     7
100
AcDbCircle
 10
223.1044416586712
 20
153.8004117209385
 30
0.0
 40
7.999999999999849
  0
CIRCLE
  5
2E4
330
400
100
AcDbEntity
  8
DATA
  6
Continuous
 62
     7
100
AcDbCircle
 10
253.1044416586712
 20
153.8004117209386
 30
0.0
 40
8.000000000000104
  0
CIRCLE
  5
2E5
330
400
100
AcDbEntity
  8
DATA
  6
Continuous
 62
     7
100
AcDbCircle
 10
283.1044416586712
 20
153.8004117209386
 30
0.0
 40
8.000000000000044
  0
CIRCLE
  5
2E6
330
400
100
AcDbEntity
  8
DATA
  6
Continuous
 62
     7
100
AcDbCircle
 10
313.1044416586712
 20
153.8004117209387
 30
0.0
 40
8.000000000000044
  0
CIRCLE
  5
2E7
330
400
100
AcDbEntity
  8
DATA
  6
Continuous
 62
     7
100
AcDbCircle
 10
343.1044416586712
 20
153.8004117209387
 30
0.0
 40
8.000000000000044
  0
CIRCLE
  5
2E8
330
400
100
AcDbEntity
  8
DATA
  6
Continuous
 62
     7
100
AcDbCircle
 10
373.1044416586712
 20
153.8004117209387
 30
0.0
 40
7.999999999999849
  0
LINE
  5
2E9
330
400
100
AcDbEntity
  8
DATA
  6
Continuous
 62
     7
100
AcDbLine
 10
387.9797962081981
 20
175.0000000000001
 30
0.0
 11
387.9797962081981
 21
133.8008001369185
 31
0.0
  0
LINE
  5
2EA
330
400
100
AcDbEntity
  8
DATA
  6
Continuous
 62
     7
100
AcDbLine
 10
388.2365658361724
 20
175.0000000000001
 30
0.0
 11
208.2365658361721
 21
175.0
 31
0.0
  0
LINE
  5
2EB
330
400
100
AcDbEntity
  8
DATA
  6
Continuous
 62
     7
100
AcDbLine
 10
208.2365658361721
 20
133.8008001369184
 30
0.0
 11
208.2365658361721
 21
175.0
 31
0.0
  0
LINE
  5
2EC
330
400
100
AcDbEntity
  8
DATA
  6
Continuous
 62
     7
100
AcDbLine
 10
388.0296543883874
 20
141.8006447705248
 30
0.0
 11
208.0296543883874
 21
141.8006447705265
 31
0.0
  0
LINE
  5
2ED
330
400
100
AcDbEntity
  8
DATA
  6
Continuous
 62
     7
100
AcDbLine
 10
388.1792289289549
 20
165.8001786713492
 30
0.0
 11
208.179228928955
 21
165.8001786713509
 31
0.0
  0
LINE
  5
2EE
330
400
100
AcDbEntity
  8
DATA
  6
Continuous
 62
     7
100
AcDbLine
 10
227.2365658361727
 20
169.0001165247941
 30
0.0
 11
227.2365658361727
 21
174.9999999999998
 31
0.0
  0
LINE
  5
2EF
330
400
100
AcDbEntity
  8
DATA
  6
Continuous
 62
     7
100
AcDbLine
 10
227.2365658361727
 20
169.0001165247941
 30
0.0
 11
219.2365658361727
 21
169.0001165247941
 31
0.0
  0
LINE
  5
2F0
330
400
100
AcDbEntity
  8
DATA
  6
Continuous
 62
     7
100
AcDbLine
 10
219.2365658361727
 20
169.0001165247941
 30
0.0
 11
219.2365658361727
 21
174.9999999999999
 31
0.0
  0
LINE
  5
2F1
330
400
100
AcDbEntity
  8
DATA
  6
Continuous
 62
     7
100
AcDbLine
 10
257.2365658361724
 20
169.000116524794
 30
0.0
 11
257.2365658361724
 21
175.0
 31
0.0
  0
LINE
  5
2F2
330
400
100
AcDbEntity
  8
DATA
  6
Continuous
 62
     7
100
AcDbLine
 10
257.2365658361724
 20
169.000116524794
 30
0.0
 11
249.2365658361724
 21
169.000116524794
 31
0.0
  0
LINE
  5
2F3
330
400
100
AcDbEntity
  8
DATA
  6
Continuous
 62
     7
100
AcDbLine
 10
249.2365658361724
 20
169.000116524794
 30
0.0
 11
249.2365658361724
 21
175.0000000000001
 31
0.0
  0
LINE
  5
2F4
330
400
100
AcDbEntity
  8
DATA
  6
Continuous
 62
     7
100
AcDbLine
 10
287.2365658361724
 20
169.000116524794
 30
0.0
 11
287.2365658361724
 21
174.9999999999999
 31
0.0
  0
LINE
  5
2F5
330
400
100
AcDbEntity
  8
DATA
  6
Continuous
 62
     7
100
AcDbLine
 10
287.2365658361724
 20
169.000116524794
 30
0.0
 11
279.2365658361724
 21
169.000116524794
 31
0.0
  0
LINE
  5
2F6
330
400
100
AcDbEntity
  8
DATA
  6
Continuous
 62
     7
100
AcDbLine
 10
279.2365658361724
 20
169.000116524794
 30
0.0
 11
279.2365658361724
 21
175.0000000000001
 31
0.0
  0
LINE
  5
2F7
330
400
100
AcDbEntity
  8
DATA
  6
Continuous
 62
     7
100
AcDbLine
 10
317.2365658361723
 20
169.0001165247941
 30
0.0
 11
317.2365658361723
 21
175.0000000000001
 31
0.0
  0
LINE
  5
2F8
330
400
100
AcDbEntity
  8
DATA
  6
Continuous
 62
     7
100
AcDbLine
 10
317.2365658361723
 20
169.0001165247941
 30
0.0
 11
309.2365658361724
 21
169.0001165247941
 31
0.0
  0
LINE
  5
2F9
330
400
100
AcDbEntity
  8
DATA
  6
Continuous
 62
     7
100
AcDbLine
 10
309.2365658361724
 20
169.0001165247941
 30
0.0
 11
309.2365658361724
 21
175.0000000000002
 31
0.0
  0
LINE
  5
2FA
330
400
100
AcDbEntity
  8
DATA
  6
Continuous
 62
     7
100
AcDbLine
 10
347.2365658361724
 20
169.0001165247941
 30
0.0
 11
347.2365658361724
 21
175.0000000000001
 31
0.0
  0
LINE
  5
2FB
330
400
100
AcDbEntity
  8
DATA
  6
Continuous
 62
     7
100
AcDbLine
 10
347.2365658361724
 20
169.0001165247941
 30
0.0
 11
339.2365658361724
 21
169.0001165247941
 31
0.0
  0
LINE
  5
2FC
330
400
100
AcDbEntity
  8
DATA
  6
Continuous
 62
     7
100
AcDbLine
 10
339.2365658361724
 20
169.0001165247941
 30
0.0
 11
339.2365658361724
 21
175.0000000000001
 31
0.0
  0
LINE
  5
2FD
330
400
100
AcDbEntity
  8
DATA
  6
Continuous
 62
     7
100
AcDbLine
 10
377.2365658361727
 20
169.0001165247942
 30
0.0
 11
377.2365658361727
 21
175.0000000000001
 31
0.0
  0
LINE
  5
2FE
330
400
100
AcDbEntity
  8
DATA
  6
Continuous
 62
     7
100
AcDbLine
 10
377.2365658361727
 20
169.0001165247942
 30
0.0
 11
369.2365658361724
 21
169.0001165247942
 31
0.0
  0
LINE
  5
2FF
330
400
100
AcDbEntity
  8
DATA
  6
Continuous
 62
     7
100
AcDbLine
 10
369.2365658361724
 20
169.0001165247942
 30
0.0
 11
369.2365658361724
 21
175.0000000000001
 31
0.0
  0
LINE
  5
300
330
400
100
AcDbEntity
  8
DATA
  6
Continuous
 62
     7
100
AcDbLine
 10
225.8223260174601
 20
161.3245797554949
 30
0.0
 11
217.6634420851223
 21
147.9356420203764
 31
0.0
  0
LINE
  5
301
330
400
100
AcDbEntity
  8
DATA
  6
Continuous
 62
     7
100
AcDbLine
 10
228.5549365652538
 20
159.6593952029334
 30
0.0
 11
220.3960526329157
 21
146.2704574678148
 31
0.0
  0
LINE
  5
302
330
400
100
AcDbEntity
  8
DATA
  6
Continuous
 62
     7
100
AcDbLine
 10
261.0756701190285
 20
153.122535011812
 30
0.0
 11
246.0312748256313
 21
157.5380996362114
 31
0.0
  0
LINE
  5
303
330
400
100
AcDbEntity
  8
DATA
  6
Continuous
 62
     7
100
AcDbLine
 10
260.174477006789
 20
150.052054434695
 30
0.0
 11
245.1300817133916
 21
154.4676190590946
 31
0.0
  0
LINE
  5
304
330
400
100
AcDbEntity
  8
DATA
  6
Continuous
 62
     7
100
AcDbLine
 10
290.9795044983344
 20
155.2087388389568
 30
0.0
 11
275.3049023238647
 21
155.580070723331
 31
0.0
  0
LINE
  5
305
330
400
100
AcDbEntity
  8
DATA
  6
Continuous
 62
     7
100
AcDbLine
 10
290.9037176477235
 20
152.0096364096378
 30
0.0
 11
275.2291154732535
 21
152.3809682940119
 31
0.0
  0
LINE
  5
306
330
400
100
AcDbEntity
  8
DATA
  6
Continuous
 62
     7
100
AcDbLine
 10
315.8223260174604
 20
161.3245797554951
 30
0.0
 11
307.6634420851225
 21
147.9356420203765
 31
0.0
  0
LINE
  5
307
330
400
100
AcDbEntity
  8
DATA
  6
Continuous
 62
     7
100
AcDbLine
 10
318.5549365652536
 20
159.6593952029336
 30
0.0
 11
310.3960526329157
 21
146.270457467815
 31
0.0
  0
LINE
  5
308
330
400
100
AcDbEntity
  8
DATA
  6
Continuous
 62
     7
100
AcDbLine
 10
350.6286096932273
 20
151.0825273621496
 30
0.0
 11
337.2396719581089
 21
159.2414112944874
 31
0.0
  0
LINE
  5
309
330
400
100
AcDbEntity
  8
DATA
  6
Continuous
 62
     7
100
AcDbLine
 10
348.9634251406659
 20
148.3499168143564
 30
0.0
 11
335.5744874055476
 21
156.5088007466942
 31
0.0
  0
LINE
  5
30A
330
400
100
AcDbEntity
  8
DATA
  6
Continuous
 62
     7
100
AcDbLine
 10
371.6961145406528
 20
161.675474560602
 30
0.0
 11
371.3247826562788
 21
146.0008723861323
 31
0.0
  0
LINE
  5
30B
330
400
100
AcDbEntity
  8
DATA
  6
Continuous
 62
     7
100
AcDbLine
 10
374.8952169699718
 20
161.599687709991
 30
0.0
 11
374.5238850855977
 21
145.9250855355213
 31
0.0
  0
LINE
  5
30C
330
400
100
AcDbEntity
  8
DATA
  6
Continuous
 62
     7
100
AcDbLine
 10
123.0
 20
-82.0
 30
0.0
 11
111.0
 21
-82.0
 31
0.0
  0
LINE
  5
30D
330
400
100
AcDbEntity
  8
DATA
  6
Continuous
 62
     7
100
AcDbLine
 10
123.0
 20
-118.0
 30
0.0
 11
111.0
 21
-118.0
 31
0.0
  0
LINE
  5
30E
330
400
100
AcDbEntity
  8
DATA
  6
Continuous
 62
     7
100
AcDbLine
 10
149.0
 20
-74.00000000000003
 30
0.0
 11
149.0
 21
-126.0
 31
0.0
  0
LINE
  5
30F
330
400
100
AcDbEntity
  8
DATA
  6
Continuous
 62
     7
100
AcDbLine
 10
123.0
 20
-126.0
 30
0.0
 11
123.0
 21
-74.00000000000003
 31
0.0
  0
LINE
  5
310
330
400
100
AcDbEntity
  8
DATA
  6
Continuous
 62
     7
100
AcDbLine
 10
149.0
 20
-126.0
 30
0.0
 11
123.0
 21
-126.0
 31
0.0
  0
LINE
  5
311
330
400
100
AcDbEntity
  8
DATA
  6
Continuous
 62
     7
100
AcDbLine
 10
123.0
 20
-74.00000000000003
 30
0.0
 11
149.0
 21
-74.00000000000003
 31
0.0
  0
LINE
  5
312
330
400
100
AcDbEntity
  8
DATA
  6
Continuous
 62
     7
100
AcDbLine
 10
160.0
 20
-119.25
 30
0.0
 11
160.0
 21
-80.75000000000001
 31
0.0
  0
LINE
  5
313
330
400
100
AcDbEntity
  8
DATA
  6
Continuous
 62
     7
100
AcDbLine
 10
160.0
 20
-119.25
 30
0.0
 11
149.0
 21
-119.25
 31
0.0
  0
LINE
  5
314
330
400
100
AcDbEntity
  8
DATA
  6
Continuous
 62
     7
100
AcDbLine
 10
149.0
 20
-80.75000000000001
 30
0.0
 11
160.0
 21
-80.75000000000001
 31
0.0
  0
LINE
  5
315
330
400
100
AcDbEntity
  8
DATA
  6
Continuous
 62
     7
100
AcDbLine
 10
258.5499999524487
 20
-26.0
 30
0.0
 11
255.0499999524487
 21
-26.0
 31
0.0
  0
LINE
  5
316
330
400
100
AcDbEntity
  8
DATA
  6
Continuous
 62
     7
100
AcDbLine
 10
112.0
 20
-49.58320433670758
 30
0.0
 11
111.0
 21
-49.58320433670758
 31
0.0
  0
LINE
  5
317
330
400
100
AcDbEntity
  8
DATA
  6
Continuous
 62
     7
100
AcDbLine
 10
112.0
 20
-55.58320433670758
 30
0.0
 11
111.0
 21
-55.58320433670758
 31
0.0
  0
LINE
  5
318
330
400
100
AcDbEntity
  8
DATA
  6
Continuous
 62
     7
100
AcDbLine
 10
112.0
 20
-55.58320433670758
 30
0.0
 11
112.0
 21
-49.58320433670758
 31
0.0
  0
ARC
  5
319
330
400
100
AcDbEntity
  8
DATA
  6
Continuous
 62
     7
100
AcDbCircle
 10
108.0
 20
-52.58320433670758
 30
0.0
 40
5.000000000000012
100
AcDbArc
 50
323.1301023541561
 51
36.86989764584389
  0
LINE
  5
31A
330
400
100
AcDbEntity
  8
DATA
  6
Continuous
 62
     7
100
AcDbLine
 10
112.0
 20
-23.0
 30
0.0
 11
111.0
 21
-23.0
 31
0.0
  0
LINE
  5
31B
330
400
100
AcDbEntity
  8
DATA
  6
Continuous
 62
     7
100
AcDbLine
 10
112.0
 20
-29.0
 30
0.0
 11
111.0
 21
-29.0
 31
0.0
  0
LINE
  5
31C
330
400
100
AcDbEntity
  8
DATA
  6
Continuous
 62
     7
100
AcDbLine
 10
112.0
 20
-29.0
 30
0.0
 11
112.0
 21
-23.0
 31
0.0
  0
ARC
  5
31D
330
400
100
AcDbEntity
  8
DATA
  6
Continuous
 62
     7
100
AcDbCircle
 10
108.0
 20
-26.0
 30
0.0
 40
5.000000000000012
100
AcDbArc
 50
323.1301023541561
 51
36.86989764584389
  0
LINE
  5
31E
330
400
100
AcDbEntity
  8
DATA
  6
Continuous
 62
     7
100
AcDbLine
 10
112.0
 20
-141.2193831571586
 30
0.0
 11
111.0
 21
-141.2193831571586
 31
0.0
  0
LINE
  5
31F
330
400
100
AcDbEntity
  8
DATA
  6
Continuous
 62
     7
100
AcDbLine
 10
112.0
 20
-147.2193831571585
 30
0.0
 11
111.0
 21
-147.2193831571585
 31
0.0
  0
LINE
  5
320
330
400
100
AcDbEntity
  8
DATA
  6
Continuous
 62
     7
100
AcDbLine
 10
112.0
 20
-147.2193831571585
 30
0.0
 11
112.0
 21
-141.2193831571586
 31
0.0
  0
ARC
  5
321
330
400
100
AcDbEntity
  8
DATA
  6
Continuous
 62
     7
100
AcDbCircle
 10
108.0
 20
-144.2193831571586
 30
0.0
 40
5.000000000000012
100
AcDbArc
 50
323.1301023541561
 51
36.86989764584389
  0
LINE
  5
322
330
400
100
AcDbEntity
  8
DATA
  6
Continuous
 62
     7
100
AcDbLine
 10
112.0
 20
-168.9129539378694
 30
0.0
 11
111.0
 21
-168.9129539378694
 31
0.0
  0
LINE
  5
323
330
400
100
AcDbEntity
  8
DATA
  6
Continuous
 62
     7
100
AcDbLine
 10
112.0
 20
-174.9129539378694
 30
0.0
 11
111.0
 21
-174.9129539378694
 31
0.0
  0
LINE
  5
324
330
400
100
AcDbEntity
  8
DATA
  6
Continuous
 62
     7
100
AcDbLine
 10
112.0
 20
-174.9129539378694
 30
0.0
 11
112.0
 21
-168.9129539378694
 31
0.0
  0
ARC
  5
325
330
400
100
AcDbEntity
  8
DATA
  6
Continuous
 62
     7
100
AcDbCircle
 10
108.0
 20
-171.9129539378694
 30
0.0
 40
5.000000000000012
100
AcDbArc
 50
323.1301023541561
 51
36.86989764584389
  0
LINE
  5
326
330
400
100
AcDbEntity
  8
DATA
  6
Continuous
 62
     7
100
AcDbLine
 10
119.0
 20
-64.42899470025588
 30
0.0
 11
111.0
 21
-64.42899470025588
 31
0.0
  0
LINE
  5
327
330
400
100
AcDbEntity
  8
DATA
  6
Continuous
 62
     7
100
AcDbLine
 10
119.0
 20
-55.63357531693583
 30
0.0
 11
111.0
 21
-55.63357531693583
 31
0.0
  0
LINE
  5
328
330
400
100
AcDbEntity
  8
DATA
  6
Continuous
 62
     7
100
AcDbLine
 10
119.0
 20
-32.21691754654006
 30
0.0
 11
111.0
 21
-32.21691754654006
 31
0.0
  0
LINE
  5
329
330
400
100
AcDbEntity
  8
DATA
  6
Continuous
 62
     7
100
AcDbLine
 10
125.0
 20
-57.34790991833973
 30
0.0
 11
119.0
 21
-55.63357531693583
 31
0.0
  0
LINE
  5
32A
330
400
100
AcDbEntity
  8
DATA
  6
Continuous
 62
     7
100
AcDbLine
 10
119.0
 20
-55.63357531693583
 30
0.0
 11
119.0
 21
-32.21691754654006
 31
0.0
  0
LINE
  5
32B
330
400
100
AcDbEntity
  8
DATA
  6
Continuous
 62
     7
100
AcDbLine
 10
119.0
 20
-32.21691754654006
 30
0.0
 11
125.0
 21
-33.93125214794435
 31
0.0
  0
LINE
  5
32C
330
400
100
AcDbEntity
  8
DATA
  6
Continuous
 62
     7
100
AcDbLine
 10
125.0
 20
-33.93125214794435
 30
0.0
 11
125.0
 21
-62.49091372255242
 31
0.0
  0
LINE
  5
32D
330
400
100
AcDbEntity
  8
DATA
  6
Continuous
 62
     7
100
AcDbLine
 10
125.0
 20
-62.49091372255242
 30
0.0
 11
119.0
 21
-64.42899470025588
 31
0.0
  0
LINE
  5
32E
330
400
100
AcDbEntity
  8
DATA
  6
Continuous
 62
     7
100
AcDbLine
 10
117.5
 20
-35.1123573101668
 30
0.0
 11
113.5
 21
-35.1123573101668
 31
0.0
  0
LINE
  5
32F
330
400
100
AcDbEntity
  8
DATA
  6
Continuous
 62
     7
100
AcDbLine
 10
113.5
 20
-37.19383800086868
 30
0.0
 11
117.5
 21
-37.19383800086868
 31
0.0
  0
LINE
  5
330
330
400
100
AcDbEntity
  8
DATA
  6
Continuous
 62
     7
100
AcDbLine
 10
117.5
 20
-41.09661429593461
 30
0.0
 11
113.5
 21
-41.09661429593461
 31
0.0
  0
LINE
  5
331
330
400
100
AcDbEntity
  8
DATA
  6
Continuous
 62
     7
100
AcDbLine
 10
113.5
 20
-46.82068619536465
 30
0.0
 11
117.5
 21
-46.82068619536465
 31
0.0
  0
LINE
  5
332
330
400
100
AcDbEntity
  8
DATA
  6
Continuous
 62
     7
100
AcDbLine
 10
117.5
 20
-48.9021668860666
 30
0.0
 11
113.5
 21
-48.9021668860666
 31
0.0
  0
LINE
  5
333
330
400
100
AcDbEntity
  8
DATA
  6
Continuous
 62
     7
100
AcDbLine
 10
117.5
 20
-52.80494318113247
 30
0.0
 11
113.5
 21
-52.80494318113247
 31
0.0
  0
LINE
  5
334
330
400
100
AcDbEntity
  8
DATA
  6
Continuous
 62
     7
100
AcDbLine
 10
113.5
 20
-54.62623878549657
 30
0.0
 11
117.5
 21
-54.62623878549657
 31
0.0
  0
LINE
  5
335
330
400
100
AcDbEntity
  8
DATA
  6
Continuous
 62
     7
100
AcDbLine
 10
113.5
 20
-33.29106170580266
 30
0.0
 11
117.5
 21
-33.29106170580266
 31
0.0
  0
LINE
  5
336
330
400
100
AcDbEntity
  8
DATA
  6
Continuous
 62
     7
100
AcDbLine
 10
117.5
 20
-39.01513360523279
 30
0.0
 11
113.5
 21
-39.01513360523279
 31
0.0
  0
LINE
  5
337
330
400
100
AcDbEntity
  8
DATA
  6
Continuous
 62
     7
100
AcDbLine
 10
113.5
 20
-42.91790990029872
 30
0.0
 11
117.5
 21
-42.91790990029872
 31
0.0
  0
LINE
  5
338
330
400
100
AcDbEntity
  8
DATA
  6
Continuous
 62
     7
100
AcDbLine
 10
117.5
 20
-44.99939059100054
 30
0.0
 11
113.5
 21
-44.99939059100054
 31
0.0
  0
LINE
  5
339
330
400
100
AcDbEntity
  8
DATA
  6
Continuous
 62
     7
100
AcDbLine
 10
113.5
 20
-50.72346249043071
 30
0.0
 11
117.5
 21
-50.72346249043071
 31
0.0
  0
LINE
  5
33A
330
400
100
AcDbEntity
  8
DATA
  6
Continuous
 62
     7
100
AcDbLine
 10
113.5
 20
-54.62623878549657
 30
0.0
 11
113.5
 21
-52.80494318113247
 31
0.0
  0
LINE
  5
33B
330
400
100
AcDbEntity
  8
DATA
  6
Continuous
 62
     7
100
AcDbLine
 10
113.5
 20
-50.72346249043071
 30
0.0
 11
113.5
 21
-48.9021668860666
 31
0.0
  0
LINE
  5
33C
330
400
100
AcDbEntity
  8
DATA
  6
Continuous
 62
     7
100
AcDbLine
 10
113.5
 20
-46.82068619536465
 30
0.0
 11
113.5
 21
-44.99939059100054
 31
0.0
  0
LINE
  5
33D
330
400
100
AcDbEntity
  8
DATA
  6
Continuous
 62
     7
100
AcDbLine
 10
113.5
 20
-42.91790990029872
 30
0.0
 11
113.5
 21
-41.09661429593461
 31
0.0
  0
LINE
  5
33E
330
400
100
AcDbEntity
  8
DATA
  6
Continuous
 62
     7
100
AcDbLine
 10
113.5
 20
-39.01513360523279
 30
0.0
 11
113.5
 21
-37.19383800086868
 31
0.0
  0
LINE
  5
33F
330
400
100
AcDbEntity
  8
DATA
  6
Continuous
 62
     7
100
AcDbLine
 10
113.5
 20
-35.1123573101668
 30
0.0
 11
113.5
 21
-33.29106170580266
 31
0.0
  0
LINE
  5
340
330
400
100
AcDbEntity
  8
DATA
  6
Continuous
 62
     7
100
AcDbLine
 10
117.5
 20
-54.62623878549657
 30
0.0
 11
117.5
 21
-52.80494318113247
 31
0.0
  0
LINE
  5
341
330
400
100
AcDbEntity
  8
DATA
  6
Continuous
 62
     7
100
AcDbLine
 10
117.5
 20
-50.72346249043071
 30
0.0
 11
117.5
 21
-48.9021668860666
 31
0.0
  0
LINE
  5
342
330
400
100
AcDbEntity
  8
DATA
  6
Continuous
 62
     7
100
AcDbLine
 10
117.5
 20
-46.82068619536465
 30
0.0
 11
117.5
 21
-44.99939059100054
 31
0.0
  0
LINE
  5
343
330
400
100
AcDbEntity
  8
DATA
  6
Continuous
 62
     7
100
AcDbLine
 10
117.5
 20
-42.91790990029872
 30
0.0
 11
117.5
 21
-41.09661429593461
 31
0.0
  0
LINE
  5
344
330
400
100
AcDbEntity
  8
DATA
  6
Continuous
 62
     7
100
AcDbLine
 10
117.5
 20
-39.01513360523279
 30
0.0
 11
117.5
 21
-37.19383800086868
 31
0.0
  0
LINE
  5
345
330
400
100
AcDbEntity
  8
DATA
  6
Continuous
 62
     7
100
AcDbLine
 10
117.5
 20
-35.1123573101668
 30
0.0
 11
117.5
 21
-33.29106170580266
 31
0.0
  0
LINE
  5
346
330
400
100
AcDbEntity
  8
DATA
  6
Continuous
 62
     7
100
AcDbLine
 10
131.5
 20
-143.4068376636608
 30
0.0
 11
122.0
 21
-143.4068376636608
 31
0.0
  0
LINE
  5
347
330
400
100
AcDbEntity
  8
DATA
  6
Continuous
 62
     7
100
AcDbLine
 10
131.5
 20
-136.7561592598633
 30
0.0
 11
122.0
 21
-136.7561592598633
 31
0.0
  0
LINE
  5
348
330
400
100
AcDbEntity
  8
DATA
  6
Continuous
 62
     7
100
AcDbLine
 10
131.5
 20
-163.0438407401367
 30
0.0
 11
122.0
 21
-163.0438407401367
 31
0.0
  0
LINE
  5
349
330
400
100
AcDbEntity
  8
DATA
  6
Continuous
 62
     7
100
AcDbLine
 10
122.0
 20
-136.7561592598633
 30
0.0
 11
122.0
 21
-163.0438407401367
 31
0.0
  0
LINE
  5
34A
330
400
100
AcDbEntity
  8
DATA
  6
Continuous
 62
     7
100
AcDbLine
 10
131.5
 20
-136.7561592598633
 30
0.0
 11
131.5
 21
-163.0438407401367
 31
0.0
  0
LINE
  5
34B
330
400
100
AcDbEntity
  8
DATA
  6
Continuous
 62
     7
100
AcDbLine
 10
122.0
 20
-147.173221854443
 30
0.0
 11
112.0342083424663
 21
-147.173221854443
 31
0.0
  0
LINE
  5
34C
330
400
100
AcDbEntity
  8
DATA
  6
Continuous
 62
     7
100
AcDbLine
 10
122.0
 20
-157.5272780220394
 30
0.0
 11
111.0
 21
-157.5272780220394
 31
0.0
  0
LINE
  5
34D
330
400
100
AcDbEntity
  8
DATA
  6
Continuous
 62
     7
100
AcDbLine
 10
235.48217211383
 20
-143.4068376636608
 30
0.0
 11
242.2658640857035
 21
-136.7561592598633
 31
0.0
  0
LINE
  5
34E
330
400
100
AcDbEntity
  8
DATA
  6
Continuous
 62
     7
100
AcDbLine
 10
122.0
 20
-152.626778145557
 30
0.0
 11
111.0
 21
-152.626778145557
 31
0.0
  0
LINE
  5
34F
330
400
100
AcDbEntity
  8
DATA
  6
Continuous
 62
     7
100
AcDbLine
 10
122.0
 20
-142.2727219779606
 30
0.0
 11
112.6054869724496
 21
-142.2727219779606
 31
0.0
  0
LINE
  5
350
330
400
100
AcDbEntity
  8
DATA
  6
Continuous
 62
     7
100
AcDbLine
 10
112.0
 20
-159.4499999999999
 30
0.0
 11
111.0
 21
-159.4499999999999
 31
0.0
  0
LINE
  5
351
330
400
100
AcDbEntity
  8
DATA
  6
Continuous
 62
     7
100
AcDbLine
 10
111.0
 20
-183.4499999999999
 30
0.0
 11
112.0
 21
-183.4499999999999
 31
0.0
  0
LINE
  5
352
330
400
100
AcDbEntity
  8
DATA
  6
Continuous
 62
     7
100
AcDbLine
 10
123.2
 20
-183.4499999999999
 30
0.0
 11
124.2
 21
-183.4499999999999
 31
0.0
  0
LINE
  5
353
330
400
100
AcDbEntity
  8
DATA
  6
Continuous
 62
     7
100
AcDbLine
 10
124.2
 20
-183.4499999999999
 30
0.0
 11
124.2
 21
-173.6087766671738
 31
0.0
  0
LINE
  5
354
330
400
100
AcDbEntity
  8
DATA
  6
Continuous
 62
     7
100
AcDbLine
 10
124.2
 20
-168.7811707785713
 30
0.0
 11
124.2
 21
-163.0438407401367
 31
0.0
  0
LINE
  5
355
330
400
100
AcDbEntity
  8
DATA
  6
Continuous
 62
     7
100
AcDbLine
 10
123.2
 20
-183.4499999999999
 30
0.0
 11
123.2
 21
-173.6087766671738
 31
0.0
  0
LINE
  5
356
330
400
100
AcDbEntity
  8
DATA
  6
Continuous
 62
     7
100
AcDbLine
 10
123.2
 20
-168.7811707785713
 30
0.0
 11
123.2
 21
-163.0438407401367
 31
0.0
  0
LINE
  5
357
330
400
100
AcDbEntity
  8
DATA
  6
Continuous
 62
     7
100
AcDbLine
 10
112.0
 20
-174.9129539378694
 30
0.0
 11
112.0
 21
-183.4499999999999
 31
0.0
  0
LINE
  5
358
330
400
100
AcDbEntity
  8
DATA
  6
Continuous
 62
     7
100
AcDbLine
 10
112.0
 20
-168.7811707785713
 30
0.0
 11
112.0
 21
-159.4499999999999
 31
0.0
  0
LINE
  5
359
330
400
100
AcDbEntity
  8
DATA
  6
Continuous
 62
     7
100
AcDbLine
 10
122.0
 20
-161.1999999999999
 30
0.0
 11
112.0
 21
-161.1999999999999
 31
0.0
  0
LINE
  5
35A
330
400
100
AcDbEntity
  8
DATA
  6
Continuous
 62
     7
100
AcDbLine
 10
123.2
 20
-181.6999999999999
 30
0.0
 11
112.0
 21
-181.6999999999999
 31
0.0
  0
LINE
  5
35B
330
400
100
AcDbEntity
  8
DATA
  6
Continuous
 62
     7
100
AcDbLine
 10
147.0
 20
-141.0
 30
0.0
 11
141.5
 21
-141.0
 31
0.0
  0
LINE
  5
35C
330
400
100
AcDbEntity
  8
DATA
  6
Continuous
 62
     7
100
AcDbLine
 10
147.0
 20
-58.99999999999997
 30
0.0
 11
141.5
 21
-58.99999999999997
 31
0.0
  0
LINE
  5
35D
330
400
100
AcDbEntity
  8
DATA
  6
Continuous
 62
     7
100
AcDbLine
 10
147.0
 20
-58.99999999999997
 30
0.0
 11
147.0
 21
-74.00000000000003
 31
0.0
  0
LINE
  5
35E
330
400
100
AcDbEntity
  8
DATA
  6
Continuous
 62
     7
100
AcDbLine
 10
147.0
 20
-126.0
 30
0.0
 11
147.0
 21
-141.0
 31
0.0
  0
LINE
  5
35F
330
400
100
AcDbEntity
  8
DATA
  6
Continuous
 62
     7
100
AcDbLine
 10
141.5
 20
-56.49999999999997
 30
0.0
 11
141.5
 21
-74.00000000000003
 31
0.0
  0
LINE
  5
360
330
400
100
AcDbEntity
  8
DATA
  6
Continuous
 62
     7
100
AcDbLine
 10
141.5
 20
-126.0
 30
0.0
 11
141.5
 21
-143.5
 31
0.0
  0
LINE
  5
361
330
400
100
AcDbEntity
  8
DATA
  6
Continuous
 62
     7
100
AcDbLine
 10
141.5
 20
-56.49999999999997
 30
0.0
 11
125.5
 21
-56.49999999999997
 31
0.0
  0
LINE
  5
362
330
400
100
AcDbEntity
  8
DATA
  6
Continuous
 62
     7
100
AcDbLine
 10
141.5
 20
-143.5
 30
0.0
 11
131.5
 21
-143.5
 31
0.0
  0
LINE
  5
363
330
400
100
AcDbEntity
  8
DATA
  6
Continuous
 62
     7
100
AcDbLine
 10
121.0
 20
-63.78296770768807
 30
0.0
 11
121.0
 21
-82.0
 31
0.0
  0
LINE
  5
364
330
400
100
AcDbEntity
  8
DATA
  6
Continuous
 62
     7
100
AcDbLine
 10
121.0
 20
-118.0
 30
0.0
 11
121.0
 21
-141.0
 31
0.0
  0
LINE
  5
365
330
400
100
AcDbEntity
  8
DATA
  6
Continuous
 62
     7
100
AcDbLine
 10
125.5
 20
-56.49999999999997
 30
0.0
 11
125.5
 21
-74.00000000000003
 31
0.0
  0
LINE
  5
366
330
400
100
AcDbEntity
  8
DATA
  6
Continuous
 62
     7
100
AcDbLine
 10
125.5
 20
-126.0
 30
0.0
 11
125.5
 21
-136.7561592598633
 31
0.0
  0
LINE
  5
367
330
400
100
AcDbEntity
  8
DATA
  6
Continuous
 62
     7
100
AcDbLine
 10
125.5
 20
-143.4068376636608
 30
0.0
 11
125.5
 21
-143.5
 31
0.0
  0
LINE
  5
368
330
400
100
AcDbEntity
  8
DATA
  6
Continuous
 62
     7
100
AcDbLine
 10
122.0
 20
-141.0
 30
0.0
 11
121.0
 21
-141.0
 31
0.0
  0
LINE
  5
369
330
400
100
AcDbEntity
  8
DATA
  6
Continuous
 62
     7
100
AcDbLine
 10
125.5
 20
-58.99999999999997
 30
0.0
 11
125.0
 21
-58.99999999999997
 31
0.0
  0
LINE
  5
36A
330
400
100
AcDbEntity
  8
DATA
  6
Continuous
 62
     7
100
AcDbLine
 10
121.0
 20
-141.0
 30
0.0
 11
117.8181950550986
 21
-142.2727219779606
 31
0.0
  0
LINE
  5
36B
330
400
100
AcDbEntity
  8
DATA
  6
Continuous
 62
     7
100
AcDbLine
 10
265.8395907148273
 20
-173.4295096220989
 30
0.0
 11
264.0188577599021
 21
-172.6019037334966
 31
0.0
  0
LINE
  5
36C
330
400
100
AcDbEntity
  8
DATA
  6
Continuous
 62
     7
100
AcDbLine
 10
266.775416566316
 20
-169.4610501096504
 30
0.0
 11
267.494802492032
 21
-169.7880437122485
 31
0.0
  0
LINE
  5
36D
330
400
100
AcDbEntity
  8
DATA
  6
Continuous
 62
     7
100
AcDbLine
 10
271.4259304628933
 20
-161.1395621763538
 30
0.0
 11
269.6051975079681
 21
-160.3119562877514
 31
0.0
  0
LINE
  5
36E
330
400
100
AcDbEntity
  8
DATA
  6
Continuous
 62
     7
100
AcDbLine
 10
271.6991773989783
 20
-156.8699304296307
 30
0.0
 11
273.081142240098
 21
-157.4980962665034
 31
0.0
  0
ARC
  5
36F
330
400
100
AcDbEntity
  8
DATA
  6
Continuous
 62
     7
100
AcDbCircle
 10
300.0
 20
-99.0
 30
0.0
 40
0.9999999999999944
100
AcDbArc
 50
294.9999999969993
 51
115.0
  0
ARC
  5
370
330
400
100
AcDbEntity
  8
DATA
  6
Continuous
 62
     7
100
AcDbCircle
 10
271.343169874033
 20
-158.9050262771274
 30
0.0
 40
1.00000000000001
100
AcDbArc
 50
199.9999999993309
 51
20.29738808232798
  0
ARC
  5
371
330
400
100
AcDbEntity
  8
DATA
  6
Continuous
 62
     7
100
AcDbCircle
 10
265.756830125967
 20
-171.1949737228726
 30
0.0
 40
0.9999999999999875
100
AcDbArc
 50
179.9103727457975
 51
0.0000000000032969
  0
ARC
  5
372
330
400
100
AcDbEntity
  8
DATA
  6
Continuous
 62
     7
100
AcDbCircle
 10
300.0
 20
-101.0
 30
0.0
 40
0.9999999999999678
100
AcDbArc
 50
315.0
 51
82.85388016472822
  0
ARC
  5
373
330
400
100
AcDbEntity
  8
DATA
  6
Continuous
 62
     7
100
AcDbCircle
 10
354.9326475507367
 20
-171.2569660243748
 30
0.0
 40
90.17583873339265
100
AcDbArc
 50
128.0984068077308
 51
179.9606114279829
  0
ARC
  5
374
330
400
100
AcDbEntity
  8
DATA
  6
Continuous
 62
     7
100
AcDbCircle
 10
355.0057546697713
 20
-171.2738786381314
 30
0.0
 40
88.24895981893321
100
AcDbArc
 50
127.972950259827
 51
179.9487708496642
  0
ARC
  5
375
330
400
100
AcDbEntity
  8
DATA
  6
Continuous
 62
     7
100
AcDbCircle
 10
314.8709702413365
 20
-142.9252217768717
 30
0.0
 40
47.36834272319022
100
AcDbArc
 50
108.8362876287022
 51
186.2546756747099
  0
ARC
  5
376
330
400
100
AcDbEntity
  8
DATA
  6
Continuous
 62
     7
100
AcDbCircle
 10
314.8709702413365
 20
-142.9252217768717
 30
0.0
 40
47.36834272319023
100
AcDbArc
 50
192.5191864898221
 51
200.155697092398
  0
ARC
  5
377
330
400
100
AcDbEntity
  8
DATA
  6
Continuous
 62
     7
100
AcDbCircle
 10
314.8925401449976
 20
-142.9262389571554
 30
0.0
 40
45.38824866844691
100
AcDbArc
 50
108.5905668801868
 51
179.3022719462092
  0
ARC
  5
378
330
400
100
AcDbEntity
  8
DATA
  6
Continuous
 62
     7
100
AcDbCircle
 10
314.8925401449976
 20
-142.9262389571554
 30
0.0
 40
45.38824866844689
100
AcDbArc
 50
186.7213960056628
 51
200.1519700913256
  0
ARC
  5
379
330
400
100
AcDbEntity
  8
DATA
  6
Continuous
 62
     7
100
AcDbCircle
 10
264.8464636485044
 20
-170.7811707785714
 30
0.0
 40
2.000000000000035
100
AcDbArc
 50
91.59540643309393
 51
245.5560452195831
  0
ARC
  5
37A
330
400
100
AcDbEntity
  8
DATA
  6
Continuous
 62
     7
100
AcDbCircle
 10
266.6671966034297
 20
-171.6087766671738
 30
0.0
 40
1.999999999999968
100
AcDbArc
 50
245.5560452195832
 51
65.55604521958392
  0
ARC
  5
37B
330
400
100
AcDbEntity
  8
DATA
  6
Continuous
 62
     7
100
AcDbCircle
 10
270.4328033965704
 20
-158.4912233328262
 30
0.0
 40
2.000000000000053
100
AcDbArc
 50
116.2296854950876
 51
245.5560452195831
  0
ARC
  5
37C
330
400
100
AcDbEntity
  8
DATA
  6
Continuous
 62
     7
100
AcDbCircle
 10
272.2535363514956
 20
-159.3188292214286
 30
0.0
 40
1.999999999999968
100
AcDbArc
 50
245.5560452195832
 51
65.55604521958392
  0
LINE
  5
37D
330
400
100
AcDbEntity
  8
DATA
  6
Continuous
 62
     7
100
AcDbLine
 10
111.0
 20
-168.7811707785713
 30
0.0
 11
145.6
 21
-168.7811707785713
 31
0.0
  0
LINE
  5
37E
330
400
100
AcDbEntity
  8
DATA
  6
Continuous
 62
     7
100
AcDbLine
 10
112.7036353250198
 20
-173.6087766671738
 30
0.0
 11
145.6
 21
-173.6087766671738
 31
0.0
  0
LINE
  5
37F
330
400
100
AcDbEntity
  8
DATA
  6
Continuous
 62
     7
100
AcDbLine
 10
147.0
 20
-172.2087766671738
 30
0.0
 11
147.0
 21
-170.1811707785713
 31
0.0
  0
LINE
  5
380
330
400
100
AcDbEntity
  8
DATA
  6
Continuous
 62
     7
100
AcDbLine
 10
158.0
 20
-119.25
 30
0.0
 11
158.0
 21
-161.1949737228726
 31
0.0
  0
LINE
  5
381
330
400
100
AcDbEntity
  8
DATA
  6
Continuous
 62
     7
100
AcDbLine
 10
156.0
 20
-119.25
 30
0.0
 11
156.0
 21
-161.1949737228726
 31
0.0
  0
ARC
  5
382
330
400
100
AcDbEntity
  8
DATA
  6
Continuous
 62
     7
100
AcDbCircle
 10
147.0
 20
-161.1949737228726
 30
0.0
 40
9.0
100
AcDbArc
 50
270.0
 51
0.0
  0
ARC
  5
383
330
400
100
AcDbEntity
  8
DATA
  6
Continuous
 62
     7
100
AcDbCircle
 10
147.0
 20
-161.1949737228726
 30
0.0
 40
11.0
100
AcDbArc
 50
270.0
 51
0.0
  0
ARC
  5
384
330
400
100
AcDbEntity
  8
DATA
  6
Continuous
 62
     7
100
AcDbCircle
 10
147.0
 20
-148.9050262771274
 30
0.0
 40
9.0
100
AcDbArc
 50
270.0
 51
0.0
  0
ARC
  5
385
330
400
100
AcDbEntity
  8
DATA
  6
Continuous
 62
     7
100
AcDbCircle
 10
147.0
 20
-148.9050262771274
 30
0.0
 40
11.0
100
AcDbArc
 50
270.0
 51
324.9031987724155
  0
LINE
  5
386
330
400
100
AcDbEntity
  8
DATA
  6
Continuous
 62
     7
100
AcDbLine
 10
147.0
 20
-159.9188292214287
 30
0.0
 11
147.0
 21
-157.8912233328262
 31
0.0
  0
LINE
  5
387
330
400
100
AcDbEntity
  8
DATA
  6
Continuous
 62
     7
100
AcDbLine
 10
145.6
 20
-156.4912233328262
 30
0.0
 11
131.5
 21
-156.4912233328262
 31
0.0
  0
LINE
  5
388
330
400
100
AcDbEntity
  8
DATA
  6
Continuous
 62
     7
100
AcDbLine
 10
145.6
 20
-161.3188292214286
 30
0.0
 11
131.5
 21
-161.3188292214286
 31
0.0
  0
ARC
  5
389
330
400
100
AcDbEntity
  8
DATA
  6
Continuous
 62
     7
100
AcDbCircle
 10
145.6
 20
-172.2087766671738
 30
0.0
 40
1.399999999999977
100
AcDbArc
 50
270.0
 51
0.0
  0
ARC
  5
38A
330
400
100
AcDbEntity
  8
DATA
  6
Continuous
 62
     7
100
AcDbCircle
 10
145.6
 20
-170.1811707785713
 30
0.0
 40
1.400000000000005
100
AcDbArc
 50
0.0
 51
90.0
  0
ARC
  5
38B
330
400
100
AcDbEntity
  8
DATA
  6
Continuous
 62
     7
100
AcDbCircle
 10
145.6
 20
-159.9188292214287
 30
0.0
 40
1.399999999999977
100
AcDbArc
 50
270.0
 51
0.0
  0
ARC
  5
38C
330
400
100
AcDbEntity
  8
DATA
  6
Continuous
 62
     7
100
AcDbCircle
 10
145.6
 20
-157.8912233328262
 30
0.0
 40
1.400000000000005
100
AcDbArc
 50
0.0
 51
90.0
  0
TEXT
  5
38D
330
400
100
AcDbEntity
  8
DATA
 62
     7
100
AcDbText
 10
300.0
 20
-295.8809949999998
 30
0.0
 40
9.773046875
  1
JBL PROFESSIONAL
 41
0.7
 11
300.0
 21
-286.1079481249998
 31
0.0
100
AcDbText
 73
     3
  0
TEXT
  5
38E
330
400
100
AcDbEntity
  8
DATA
 62
     7
100
AcDbText
 10
-250.0
 20
-337.8994438888889
 30
0.0
 40
7.601258680555555
  1
※仕様及び外観は予告なく変更されることがあります。
 41
0.7
 11
-250.0
 21
-330.2981852083334
 31
0.0
100
AcDbText
 73
     3
  0
TEXT
  5
38F
330
400
100
AcDbEntity
  8
DATA
 62
     7
100
AcDbText
 10
-250.0
 20
-347.7772216666667
 30
0.0
 40
7.601258680555555
  1
　また、同一商品でも若干の個体差があることがあります。ご了承ください。
 41
0.7
 11
-250.0
 21
-340.1759629861112
 31
0.0
100
AcDbText
 73
     3
  0
ENDSEC
  0
SECTION
  2
OBJECTS
  0
DICTIONARY
  5
39D
330
0
100
AcDbDictionary
281
     1
  3
ACAD_CIP_PREVIOUS_PRODUCT_INFO
350
418
  3
ACAD_COLOR
350
3F3
  3
ACAD_DETAILVIEWSTYLE
350
3FA
  3
ACAD_GROUP
350
39E
  3
ACAD_LAYOUT
350
3F2
  3
ACAD_MATERIAL
350
3A1
  3
ACAD_MLEADERSTYLE
350
3F6
  3
ACAD_MLINESTYLE
350
3EF
  3
ACAD_PLOTSETTINGS
350
3F1
  3
ACAD_PLOTSTYLENAME
350
39F
  3
ACAD_SCALELIST
350
3D3
  3
ACAD_SECTIONVIEWSTYLE
350
3F8
  3
ACAD_TABLESTYLE
350
3F4
  3
ACAD_VISUALSTYLE
350
3BA
  3
ACDB_RECOMPOSE_DATA
350
430
  3
AcDbVariableDictionary
350
423
  3
DWGPROPS
350
431
  0
DICTIONARY
  5
419
330
3E5
100
AcDbDictionary
280
     1
281
     1
  3
ADSK_XREC_LAYER_RECONCILED
360
41A
  0
DICTIONARY
  5
41B
330
404
100
AcDbDictionary
280
     1
281
     1
  3
ADSK_XREC_LAYER_RECONCILED
360
41C
  0
DICTIONARY
  5
41D
330
410
100
AcDbDictionary
280
     1
281
     1
  3
ADSK_XREC_LAYER_RECONCILED
360
41E
  0
DICTIONARY
  5
41F
330
411
100
AcDbDictionary
280
     1
281
     1
  3
ADSK_XREC_LAYER_RECONCILED
360
420
  0
DICTIONARY
  5
421
330
412
100
AcDbDictionary
280
     1
281
     1
  3
ADSK_XREC_LAYER_RECONCILED
360
422
  0
XRECORD
  5
418
102
{ACAD_REACTORS
330
39D
102
}
330
39D
100
AcDbXrecord
280
     1
300
ACDLT
300
2017
300
ACDLT_F_S
  0
DICTIONARY
  5
3F3
102
{ACAD_REACTORS
330
39D
102
}
330
39D
100
AcDbDictionary
281
     1
  0
DICTIONARY
  5
3FA
102
{ACAD_REACTORS
330
39D
102
}
330
39D
100
AcDbDictionary
281
     1
  3
Imperial24
350
3FB
  0
DICTIONARY
  5
39E
102
{ACAD_REACTORS
330
39D
102
}
330
39D
100
AcDbDictionary
281
     1
  0
DICTIONARY
  5
3F2
102
{ACAD_REACTORS
330
39D
102
}
330
39D
100
AcDbDictionary
281
     1
  3
Model
350
403
  3
レイアウト1
350
3FF
  0
DICTIONARY
  5
3A1
102
{ACAD_REACTORS
330
39D
102
}
330
39D
100
AcDbDictionary
281
     1
  3
ByBlock
350
3AA
  3
ByLayer
350
3A2
  3
Global
350
3B2
  0
DICTIONARY
  5
3F6
102
{ACAD_REACTORS
330
39D
102
}
330
39D
100
AcDbDictionary
281
     1
  3
Standard
350
3F7
  0
DICTIONARY
  5
3EF
102
{ACAD_REACTORS
330
39D
102
}
330
39D
100
AcDbDictionary
281
     1
  3
Standard
350
3F0
  0
DICTIONARY
  5
3F1
102
{ACAD_REACTORS
330
39D
102
}
330
39D
100
AcDbDictionary
281
     1
  0
ACDBDICTIONARYWDFLT
  5
39F
102
{ACAD_REACTORS
330
39D
102
}
330
39D
100
AcDbDictionary
281
     1
  3
Normal
350
3A0
100
AcDbDictionaryWithDefault
340
3A0
  0
DICTIONARY
  5
3D3
102
{ACAD_REACTORS
330
39D
102
}
330
39D
100
AcDbDictionary
281
     1
  3
A0
350
3D4
  3
A1
350
3D5
  3
A2
350
3D6
  3
A3
350
3D7
  3
A4
350
3D8
  3
A5
350
3D9
  3
A6
350
3DA
  3
A7
350
3DB
  3
A8
350
3DC
  3
A9
350
3DD
  3
B0
350
3DE
  3
B1
350
3DF
  3
B2
350
3E0
  3
B3
350
3E1
  3
B4
350
3E2
  3
B5
350
3E3
  3
B6
350
3E4
  0
DICTIONARY
  5
3F8
102
{ACAD_REACTORS
330
39D
102
}
330
39D
100
AcDbDictionary
281
     1
  3
Imperial24
350
3F9
  0
DICTIONARY
  5
3F4
102
{ACAD_REACTORS
330
39D
102
}
330
39D
100
AcDbDictionary
281
     1
  3
Standard
350
3F5
  0
DICTIONARY
  5
3BA
102
{ACAD_REACTORS
330
39D
102
}
330
39D
100
AcDbDictionary
281
     1
  3
2dWireframe
350
3C0
  3
Basic
350
3BF
  3
Brighten
350
3C6
  3
ColorChange
350
3CA
  3
Conceptual
350
3C3
  3
Dim
350
3C5
  3
EdgeColorOff
350
3D2
  3
Facepattern
350
3C9
  3
Flat
350
3BB
  3
FlatWithEdges
350
3BC
  3
Gouraud
350
3BD
  3
GouraudWithEdges
350
3BE
  3
Hidden
350
3C2
  3
JitterOff
350
3D0
  3
Linepattern
350
3C8
  3
OverhangOff
350
3D1
  3
Realistic
350
3C4
  3
Shaded
350
3CF
  3
Shaded with edges
350
3CE
  3
Shades of Gray
350
3CB
  3
Sketchy
350
3CC
  3
Thicken
350
3C7
  3
Wireframe
350
3C1
  3
X-Ray
350
3CD
  0
XRECORD
  5
430
102
{ACAD_REACTORS
330
39D
102
}
330
39D
100
AcDbXrecord
280
     1
 90
        1
330
3F5
  0
DICTIONARY
  5
423
102
{ACAD_REACTORS
330
39D
102
}
330
39D
100
AcDbDictionary
281
     1
  3
CANNOSCALE
350
428
  3
CMLEADERSTYLE
350
425
  3
CTABLESTYLE
350
424
  3
CVIEWDETAILSTYLE
350
426
  3
CVIEWSECTIONSTYLE
350
427
  3
DIMASSOC
350
42B
  3
INDEXCTL
350
42A
  3
SORTENTS
350
429
  3
XCLIPFRAME
350
42C
  0
XRECORD
  5
431
102
{ACAD_REACTORS
330
39D
102
}
330
39D
100
AcDbXrecord
280
     1
  1
DWGPROPS COOKIE
  2

  3

  4

  6

  7

  8
sasaki_n
  9

300
=
301
=
302
=
303
=
304
=
305
=
306
=
307
=
308
=
309
=
 40
0.0003356481481481
 41
2457812.587037037
 42
2457812.6271875
  1

 90
        0
  0
XRECORD
  5
41A
102
{ACAD_REACTORS
330
419
102
}
330
419
100
AcDbXrecord
280
     1
290
     1
  0
XRECORD
  5
41C
102
{ACAD_REACTORS
330
41B
102
}
330
41B
100
AcDbXrecord
280
     1
290
     1
  0
XRECORD
  5
41E
102
{ACAD_REACTORS
330
41D
102
}
330
41D
100
AcDbXrecord
280
     1
290
     1
  0
XRECORD
  5
420
102
{ACAD_REACTORS
330
41F
102
}
330
41F
100
AcDbXrecord
280
     1
290
     1
  0
XRECORD
  5
422
102
{ACAD_REACTORS
330
421
102
}
330
421
100
AcDbXrecord
280
     1
290
     1
  0
ACDBDETAILVIEWSTYLE
  5
3FB
102
{ACAD_XDICTIONARY
360
469
102
}
102
{ACAD_REACTORS
330
3FA
102
}
330
3FA
100
AcDbModelDocViewStyle
 70
     0
  3
Imperial24
290
     0
100
AcDbDetailViewStyle
 70
     0
 71
     0
 90
        3
 71
     1
340
3E6
 40
0.24
340
0
 40
0.24
300

 40
0.36
280
     3
 71
     2
340
3ED
 90
       25
 71
     3
340
3E6
 40
0.24
 90
        1
 40
0.75
 90
        1
300
%<\AcVar ViewType \f "%tc1">% %<\AcVar ViewDetailId>%\PSCALE %<\AcVar ViewScale \f "%sn">%
 71
     4
340
3ED
 90
       25
340
3ED
 90
       25
280
     0
  0
LAYOUT
  5
403
102
{ACAD_XDICTIONARY
360
46D
102
}
102
{ACAD_REACTORS
330
3F2
102
}
330
3F2
100
AcDbPlotSettings
  1

  2
DocuPrint 3000-2
  4

  6

 40
0.0
 41
0.0
 42
0.0
 43
0.0
 44
0.0
 45
0.0
 46
0.0
 47
0.0
 48
0.0
 49
0.0
140
0.0
141
0.0
142
1.0
143
1.0
 70
  1712
 72
     0
 73
     0
 74
     0
  7

 75
     0
147
1.0
148
0.0
149
0.0
100
AcDbLayout
  1
Model
 70
     1
 71
     0
 10
0.0
 20
0.0
 11
12.0
 21
9.0
 12
0.0
 22
0.0
 32
0.0
 14
0.0
 24
0.0
 34
0.0
 15
0.0
 25
0.0
 35
0.0
146
0.0
 13
0.0
 23
0.0
 33
0.0
 16
1.0
 26
0.0
 36
0.0
 17
0.0
 27
1.0
 37
0.0
 76
     0
330
400
331
405
  0
LAYOUT
  5
3FF
102
{ACAD_XDICTIONARY
360
46B
102
}
102
{ACAD_REACTORS
330
3F2
102
}
330
3F2
100
AcDbPlotSettings
  1

  2
DocuPrint 3000-2
  4

  6

 40
0.0
 41
0.0
 42
0.0
 43
0.0
 44
0.0
 45
0.0
 46
0.0
 47
0.0
 48
0.0
 49
0.0
140
0.0
141
0.0
142
1.0
143
1.0
 70
   688
 72
     0
 73
     0
 74
     5
  7

 75
    16
147
1.0
148
0.0
149
0.0
100
AcDbLayout
  1
レイアウト1
 70
     0
 71
     1
 10
0.0
 20
0.0
 11
12.0
 21
9.0
 12
0.0
 22
0.0
 32
0.0
 14
1.000000000000000E+20
 24
1.000000000000000E+20
 34
1.000000000000000E+20
 15
-1.000000000000000E+20
 25
-1.000000000000000E+20
 35
-1.000000000000000E+20
146
0.0
 13
0.0
 23
0.0
 33
0.0
 16
1.0
 26
0.0
 36
0.0
 17
0.0
 27
1.0
 37
0.0
 76
     0
330
3FC
  0
MATERIAL
  5
3AA
102
{ACAD_XDICTIONARY
360
3AB
102
}
102
{ACAD_REACTORS
330
3A1
102
}
330
3A1
100
AcDbMaterial
  1
ByBlock
 72
     0
 43
0.0208333333333333
 43
0.0
 43
0.0
 43
0.0
 43
0.0
 43
0.0208333333333333
 43
0.0
 43
0.0
 43
0.0
 43
0.0
 43
1.0
 43
0.0
 43
0.0
 43
0.0
 43
0.0
 43
1.0
 77
     0
 47
0.0208333333333333
 47
0.0
 47
0.0
 47
0.0
 47
0.0
 47
0.0208333333333333
 47
0.0
 47
0.0
 47
0.0
 47
0.0
 47
1.0
 47
0.0
 47
0.0
 47
0.0
 47
0.0
 47
1.0
171
     0
 49
0.0208333333333333
 49
0.0
 49
0.0
 49
0.0
 49
0.0
 49
0.0208333333333333
 49
0.0
 49
0.0
 49
0.0
 49
0.0
 49
1.0
 49
0.0
 49
0.0
 49
0.0
 49
0.0
 49
1.0
175
     0
142
0.0208333333333333
142
0.0
142
0.0
142
0.0
142
0.0
142
0.0208333333333333
142
0.0
142
0.0
142
0.0
142
0.0
142
1.0
142
0.0
142
0.0
142
0.0
142
0.0
142
1.0
179
     0
144
0.0208333333333333
144
0.0
144
0.0
144
0.0
144
0.0
144
0.0208333333333333
144
0.0
144
0.0
144
0.0
144
0.0
144
1.0
144
0.0
144
0.0
144
0.0
144
0.0
144
1.0
147
0.0208333333333333
147
0.0
147
0.0
147
0.0
147
0.0
147
0.0208333333333333
147
0.0
147
0.0
147
0.0
147
0.0
147
1.0
147
0.0
147
0.0
147
0.0
147
0.0
147
1.0
  0
MATERIAL
  5
3A2
102
{ACAD_XDICTIONARY
360
3A3
102
}
102
{ACAD_REACTORS
330
3A1
102
}
330
3A1
100
AcDbMaterial
  1
ByLayer
 72
     0
 43
0.0208333333333333
 43
0.0
 43
0.0
 43
0.0
 43
0.0
 43
0.0208333333333333
 43
0.0
 43
0.0
 43
0.0
 43
0.0
 43
1.0
 43
0.0
 43
0.0
 43
0.0
 43
0.0
 43
1.0
 77
     0
 47
0.0208333333333333
 47
0.0
 47
0.0
 47
0.0
 47
0.0
 47
0.0208333333333333
 47
0.0
 47
0.0
 47
0.0
 47
0.0
 47
1.0
 47
0.0
 47
0.0
 47
0.0
 47
0.0
 47
1.0
171
     0
 49
0.0208333333333333
 49
0.0
 49
0.0
 49
0.0
 49
0.0
 49
0.0208333333333333
 49
0.0
 49
0.0
 49
0.0
 49
0.0
 49
1.0
 49
0.0
 49
0.0
 49
0.0
 49
0.0
 49
1.0
175
     0
142
0.0208333333333333
142
0.0
142
0.0
142
0.0
142
0.0
142
0.0208333333333333
142
0.0
142
0.0
142
0.0
142
0.0
142
1.0
142
0.0
142
0.0
142
0.0
142
0.0
142
1.0
179
     0
144
0.0208333333333333
144
0.0
144
0.0
144
0.0
144
0.0
144
0.0208333333333333
144
0.0
144
0.0
144
0.0
144
0.0
144
1.0
144
0.0
144
0.0
144
0.0
144
0.0
144
1.0
147
0.0208333333333333
147
0.0
147
0.0
147
0.0
147
0.0
147
0.0208333333333333
147
0.0
147
0.0
147
0.0
147
0.0
147
1.0
147
0.0
147
0.0
147
0.0
147
0.0
147
1.0
  0
MATERIAL
  5
3B2
102
{ACAD_XDICTIONARY
360
3B3
102
}
102
{ACAD_REACTORS
330
3A1
102
}
330
3A1
100
AcDbMaterial
  1
Global
 72
     0
 43
0.0208333333333333
 43
0.0
 43
0.0
 43
0.0
 43
0.0
 43
0.0208333333333333
 43
0.0
 43
0.0
 43
0.0
 43
0.0
 43
1.0
 43
0.0
 43
0.0
 43
0.0
 43
0.0
 43
1.0
 77
     0
 47
0.0208333333333333
 47
0.0
 47
0.0
 47
0.0
 47
0.0
 47
0.0208333333333333
 47
0.0
 47
0.0
 47
0.0
 47
0.0
 47
1.0
 47
0.0
 47
0.0
 47
0.0
 47
0.0
 47
1.0
171
     0
 49
0.0208333333333333
 49
0.0
 49
0.0
 49
0.0
 49
0.0
 49
0.0208333333333333
 49
0.0
 49
0.0
 49
0.0
 49
0.0
 49
1.0
 49
0.0
 49
0.0
 49
0.0
 49
0.0
 49
1.0
175
     0
142
0.0208333333333333
142
0.0
142
0.0
142
0.0
142
0.0
142
0.0208333333333333
142
0.0
142
0.0
142
0.0
142
0.0
142
1.0
142
0.0
142
0.0
142
0.0
142
0.0
142
1.0
179
     0
144
0.0208333333333333
144
0.0
144
0.0
144
0.0
144
0.0
144
0.0208333333333333
144
0.0
144
0.0
144
0.0
144
0.0
144
1.0
144
0.0
144
0.0
144
0.0
144
0.0
144
1.0
147
0.0208333333333333
147
0.0
147
0.0
147
0.0
147
0.0
147
0.0208333333333333
147
0.0
147
0.0
147
0.0
147
0.0
147
1.0
147
0.0
147
0.0
147
0.0
147
0.0
147
1.0
  0
MLEADERSTYLE
  5
3F7
102
{ACAD_REACTORS
330
3F6
102
}
330
3F6
100
AcDbMLeaderStyle
170
     2
171
     1
172
     0
 90
        2
 40
0.0
 41
0.0
173
     1
 91
-1056964608
340
3EB
 92
       -2
290
     1
 42
0.09
291
     1
 43
0.36
  3
Standard
 44
0.18
300

342
3E6
174
     1
178
     6
175
     1
176
     0
 93
-1056964608
 45
0.18
292
     0
297
     0
 46
0.18
 94
-1056964608
 47
1.0
 49
1.0
140
1.0
293
     1
141
0.0
294
     1
177
     0
142
1.0
295
     0
296
     0
143
0.125
1001
ACAD_MLEADERVER
1070
     2
  0
MLINESTYLE
  5
3F0
102
{ACAD_REACTORS
330
3EF
102
}
330
3EF
100
AcDbMlineStyle
  2
STANDARD
 70
     0
  3

 62
   256
 51
90.0
 52
90.0
 71
     2
 49
0.5
 62
   256
  6
BYLAYER
 49
-0.5
 62
   256
  6
BYLAYER
  0
ACDBPLACEHOLDER
  5
3A0
102
{ACAD_REACTORS
330
39F
102
}
330
39F
  0
SCALE
  5
3D4
102
{ACAD_REACTORS
330
3D3
102
}
330
3D3
100
AcDbScale
 70
     0
300
1:1
140
1.0
141
1.0
290
     1
  0
SCALE
  5
3D5
102
{ACAD_REACTORS
330
3D3
102
}
330
3D3
100
AcDbScale
 70
     0
300
1/128" = 1'-0"
140
0.0078125
141
12.0
290
     0
  0
SCALE
  5
3D6
102
{ACAD_REACTORS
330
3D3
102
}
330
3D3
100
AcDbScale
 70
     0
300
1/64" = 1'-0"
140
0.015625
141
12.0
290
     0
  0
SCALE
  5
3D7
102
{ACAD_REACTORS
330
3D3
102
}
330
3D3
100
AcDbScale
 70
     0
300
1/32" = 1'-0"
140
0.03125
141
12.0
290
     0
  0
SCALE
  5
3D8
102
{ACAD_REACTORS
330
3D3
102
}
330
3D3
100
AcDbScale
 70
     0
300
1/16" = 1'-0"
140
0.0625
141
12.0
290
     0
  0
SCALE
  5
3D9
102
{ACAD_REACTORS
330
3D3
102
}
330
3D3
100
AcDbScale
 70
     0
300
3/32" = 1'-0"
140
0.09375
141
12.0
290
     0
  0
SCALE
  5
3DA
102
{ACAD_REACTORS
330
3D3
102
}
330
3D3
100
AcDbScale
 70
     0
300
1/8" = 1'-0"
140
0.125
141
12.0
290
     0
  0
SCALE
  5
3DB
102
{ACAD_REACTORS
330
3D3
102
}
330
3D3
100
AcDbScale
 70
     0
300
3/16" = 1'-0"
140
0.1875
141
12.0
290
     0
  0
SCALE
  5
3DC
102
{ACAD_REACTORS
330
3D3
102
}
330
3D3
100
AcDbScale
 70
     0
300
1/4" = 1'-0"
140
0.25
141
12.0
290
     0
  0
SCALE
  5
3DD
102
{ACAD_REACTORS
330
3D3
102
}
330
3D3
100
AcDbScale
 70
     0
300
3/8" = 1'-0"
140
0.375
141
12.0
290
     0
  0
SCALE
  5
3DE
102
{ACAD_REACTORS
330
3D3
102
}
330
3D3
100
AcDbScale
 70
     0
300
1/2" = 1'-0"
140
0.5
141
12.0
290
     0
  0
SCALE
  5
3DF
102
{ACAD_REACTORS
330
3D3
102
}
330
3D3
100
AcDbScale
 70
     0
300
3/4" = 1'-0"
140
0.75
141
12.0
290
     0
  0
SCALE
  5
3E0
102
{ACAD_REACTORS
330
3D3
102
}
330
3D3
100
AcDbScale
 70
     0
300
1" = 1'-0"
140
1.0
141
12.0
290
     0
  0
SCALE
  5
3E1
102
{ACAD_REACTORS
330
3D3
102
}
330
3D3
100
AcDbScale
 70
     0
300
1-1/2" = 1'-0"
140
1.5
141
12.0
290
     0
  0
SCALE
  5
3E2
102
{ACAD_REACTORS
330
3D3
102
}
330
3D3
100
AcDbScale
 70
     0
300
3" = 1'-0"
140
3.0
141
12.0
290
     0
  0
SCALE
  5
3E3
102
{ACAD_REACTORS
330
3D3
102
}
330
3D3
100
AcDbScale
 70
     0
300
6" = 1'-0"
140
6.0
141
12.0
290
     0
  0
SCALE
  5
3E4
102
{ACAD_REACTORS
330
3D3
102
}
330
3D3
100
AcDbScale
 70
     0
300
1'-0" = 1'-0"
140
12.0
141
12.0
290
     0
  0
ACDBSECTIONVIEWSTYLE
  5
3F9
102
{ACAD_XDICTIONARY
360
467
102
}
102
{ACAD_REACTORS
330
3F8
102
}
330
3F8
100
AcDbModelDocViewStyle
 70
     0
  3
Imperial24
290
     0
100
AcDbSectionViewStyle
 70
     0
 71
     0
 90
       78
 71
     1
340
3E6
 40
0.24
340
0
340
0
 40
0.24
300
I, O, Q, S, X, Z
 40
0.48
 90
        3
 40
0.18
 90
        1
 71
     2
340
3ED
 90
       25
340
3ED
 90
       50
 40
0.24
 40
0.0
 40
0.24
 71
     3
340
3E6
 40
0.24
 90
        1
 40
0.75
 90
        1
300
%<\AcVar ViewType \f "%tc1">% %<\AcVar ViewSectionStartId>%-%<\AcVar ViewSectionEndId>%\PSCALE %<\AcVar ViewScale \f "%sn">%
 71
     4
300
ANSI31
 40
1.0
 90
        0
290
     0
290
     0
 90
        6
 40
0.0
 40
1.570796326794896
 40
0.2617993877991494
 40
1.308996938995747
 40
-0.2617993877991494
 40
1.832595714594046
  0
TABLESTYLE
  5
3F5
102
{ACAD_XDICTIONARY
360
42E
102
}
102
{ACAD_REACTORS
330
3F4
102
}
330
3F4
100
AcDbTableStyle
  3
Standard
 70
     0
 71
     0
 40
0.06
 41
0.06
280
     0
281
     0
  7
STANDARD
140
0.18
170
     2
 62
     0
 63
     7
283
     0
274
    -2
284
     1
 64
     0
275
    -2
285
     1
 65
     0
276
    -2
286
     1
 66
     0
277
    -2
287
     1
 67
     0
278
    -2
288
     1
 68
     0
279
    -2
289
     1
 69
     0
  7
STANDARD
140
0.25
170
     5
 62
     0
 63
     7
283
     0
274
    -2
284
     1
 64
     0
275
    -2
285
     1
 65
     0
276
    -2
286
     1
 66
     0
277
    -2
287
     1
 67
     0
278
    -2
288
     1
 68
     0
279
    -2
289
     1
 69
     0
  7
STANDARD
140
0.18
170
     5
 62
     0
 63
     7
283
     0
274
    -2
284
     1
 64
     0
275
    -2
285
     1
 65
     0
276
    -2
286
     1
 66
     0
277
    -2
287
     1
 67
     0
278
    -2
288
     1
 68
     0
279
    -2
289
     1
 69
     0
  0
VISUALSTYLE
  5
3C0
102
{ACAD_XDICTIONARY
360
43F
102
}
102
{ACAD_REACTORS
330
3BA
102
}
330
3BA
100
AcDbVisualStyle
  2
2dWireframe
 70
     4
 71
     0
 72
     2
 73
     0
 90
        0
 40
-0.6
 41
-30.0
 62
     5
 63
     7
 74
     1
 91
        4
 64
     7
 65
   257
 75
     1
175
     1
 42
1.0
 92
        0
 66
   257
 43
1.0
 76
     1
 77
     6
 78
     2
 67
     7
 79
     5
170
     0
171
     0
290
     0
174
     0
 93
        1
 44
0.0
173
     0
291
     0
 45
0.0
1001
ACAD
1000
AcDbSavedByObjectVersion
1070
     0
  0
VISUALSTYLE
  5
3BF
102
{ACAD_XDICTIONARY
360
43D
102
}
102
{ACAD_REACTORS
330
3BA
102
}
330
3BA
100
AcDbVisualStyle
  2
Basic
 70
     7
 71
     1
 72
     0
 73
     1
 90
        0
 40
-0.6
 41
-30.0
 62
     5
 63
     7
 74
     0
 91
        4
 64
     7
 65
   257
 75
     1
175
     1
 42
1.0
 92
        8
 66
     7
 43
1.0
 76
     1
 77
     6
 78
     2
 67
     7
 79
     5
170
     0
171
     0
290
     0
174
     0
 93
        1
 44
0.0
173
     0
291
     1
 45
0.0
1001
ACAD
1000
AcDbSavedByObjectVersion
1070
     0
  0
VISUALSTYLE
  5
3C6
102
{ACAD_XDICTIONARY
360
44B
102
}
102
{ACAD_REACTORS
330
3BA
102
}
330
3BA
100
AcDbVisualStyle
  2
Brighten
 70
    12
 71
     2
 72
     2
 73
     0
 90
        0
 40
-0.6
 41
-30.0
 62
     5
 63
     7
 74
     1
 91
        4
 64
     7
 65
   257
 75
     1
175
     1
 42
1.0
 92
        8
 66
     7
 43
1.0
 76
     1
 77
     6
 78
     2
 67
     7
 79
     5
170
     0
171
     0
290
     0
174
     0
 93
        1
 44
50.0
173
     0
291
     1
 45
0.0
1001
ACAD
1000
AcDbSavedByObjectVersion
1070
     0
  0
VISUALSTYLE
  5
3CA
102
{ACAD_XDICTIONARY
360
453
102
}
102
{ACAD_REACTORS
330
3BA
102
}
330
3BA
100
AcDbVisualStyle
  2
ColorChange
 70
    16
 71
     2
 72
     2
 73
     3
 90
        0
 40
-0.6
 41
-30.0
 62
     5
 63
     8
 74
     1
 91
        4
 64
     7
 65
   257
 75
     1
175
     1
 42
1.0
 92
        8
 66
     8
 43
1.0
 76
     1
 77
     6
 78
     2
 67
     7
 79
     5
170
     0
171
     0
290
     0
174
     0
 93
        1
 44
0.0
173
     0
291
     1
 45
0.0
1001
ACAD
1000
AcDbSavedByObjectVersion
1070
     0
  0
VISUALSTYLE
  5
3C3
102
{ACAD_XDICTIONARY
360
445
102
}
102
{ACAD_REACTORS
330
3BA
102
}
330
3BA
100
AcDbVisualStyle
  2
Conceptual
 70
     9
 71
     3
 72
     2
 73
     0
 90
        0
 40
-0.6
 41
-30.0
 62
     5
 63
     7
 74
     2
 91
        2
 64
     7
 65
   257
 75
     1
175
     1
 42
179.0
 92
        8
 66
     7
 43
1.0
 76
     1
 77
     6
 78
     2
 67
     7
 79
     3
170
     0
171
     0
290
     0
174
     0
 93
        1
 44
0.0
173
     0
291
     0
 45
0.0
1001
ACAD
1000
AcDbSavedByObjectVersion
1070
     0
  0
VISUALSTYLE
  5
3C5
102
{ACAD_XDICTIONARY
360
449
102
}
102
{ACAD_REACTORS
330
3BA
102
}
330
3BA
100
AcDbVisualStyle
  2
Dim
 70
    11
 71
     2
 72
     2
 73
     0
 90
        0
 40
-0.6
 41
-30.0
 62
     5
 63
     7
 74
     1
 91
        4
 64
     7
 65
   257
 75
     1
175
     1
 42
1.0
 92
        8
 66
     7
 43
1.0
 76
     1
 77
     6
 78
     2
 67
     7
 79
     5
170
     0
171
     0
290
     0
174
     0
 93
        1
 44
-50.0
173
     0
291
     1
 45
0.0
1001
ACAD
1000
AcDbSavedByObjectVersion
1070
     0
  0
VISUALSTYLE
  5
3D2
102
{ACAD_XDICTIONARY
360
463
102
}
102
{ACAD_REACTORS
330
3BA
102
}
330
3BA
100
AcDbVisualStyle
  2
EdgeColorOff
 70
    22
 71
     2
 72
     2
 73
     0
 90
        0
 40
-0.6
 41
-30.0
 62
     5
 63
     7
 74
     1
 91
        4
 64
     7
 65
   257
 75
     1
175
     1
 42
1.0
 92
        8
 66
     7
 43
1.0
 76
     1
 77
     6
 78
     2
 67
     7
 79
     5
170
     0
171
     0
290
     0
174
     0
 93
        1
 44
0.0
173
     0
291
     1
 45
0.0
1001
ACAD
1000
AcDbSavedByObjectVersion
1070
     0
  0
VISUALSTYLE
  5
3C9
102
{ACAD_XDICTIONARY
360
451
102
}
102
{ACAD_REACTORS
330
3BA
102
}
330
3BA
100
AcDbVisualStyle
  2
Facepattern
 70
    15
 71
     2
 72
     2
 73
     0
 90
        0
 40
-0.6
 41
-30.0
 62
     5
 63
     7
 74
     1
 91
        4
 64
     7
 65
   257
 75
     1
175
     1
 42
1.0
 92
        8
 66
     7
 43
1.0
 76
     1
 77
     6
 78
     2
 67
     7
 79
     5
170
     0
171
     0
290
     0
174
     0
 93
        1
 44
0.0
173
     0
291
     1
 45
0.0
1001
ACAD
1000
AcDbSavedByObjectVersion
1070
     0
  0
VISUALSTYLE
  5
3BB
102
{ACAD_XDICTIONARY
360
435
102
}
102
{ACAD_REACTORS
330
3BA
102
}
330
3BA
100
AcDbVisualStyle
  2
Flat
 70
     0
 71
     2
 72
     1
 73
     1
 90
        2
 40
-0.6
 41
30.0
 62
     5
 63
     7
 74
     0
 91
        0
 64
     7
 65
   257
 75
     1
175
     1
 42
1.0
 92
        8
 66
     7
 43
1.0
 76
     1
 77
     6
 78
     2
 67
     7
 79
     5
170
     0
171
     0
290
     0
174
     0
 93
       13
 44
0.0
173
     0
291
     1
 45
0.0
1001
ACAD
1000
AcDbSavedByObjectVersion
1070
     0
  0
VISUALSTYLE
  5
3BC
102
{ACAD_XDICTIONARY
360
437
102
}
102
{ACAD_REACTORS
330
3BA
102
}
330
3BA
100
AcDbVisualStyle
  2
FlatWithEdges
 70
     1
 71
     2
 72
     1
 73
     1
 90
        2
 40
-0.6
 41
30.0
 62
     5
 63
     7
 74
     1
 91
        0
 64
     7
 65
   257
 75
     1
175
     1
 42
1.0
 92
        0
 66
   257
 43
1.0
 76
     1
 77
     6
 78
     2
 67
     7
 79
     5
170
     0
171
     0
290
     0
174
     0
 93
       13
 44
0.0
173
     0
291
     1
 45
0.0
1001
ACAD
1000
AcDbSavedByObjectVersion
1070
     0
  0
VISUALSTYLE
  5
3BD
102
{ACAD_XDICTIONARY
360
439
102
}
102
{ACAD_REACTORS
330
3BA
102
}
330
3BA
100
AcDbVisualStyle
  2
Gouraud
 70
     2
 71
     2
 72
     2
 73
     1
 90
        2
 40
-0.6
 41
30.0
 62
     5
 63
     7
 74
     0
 91
        0
 64
     7
 65
   257
 75
     1
175
     1
 42
1.0
 92
        0
 66
     7
 43
1.0
 76
     1
 77
     6
 78
     2
 67
     7
 79
     5
170
     0
171
     0
290
     0
174
     0
 93
       13
 44
0.0
173
     0
291
     1
 45
0.0
1001
ACAD
1000
AcDbSavedByObjectVersion
1070
     0
  0
VISUALSTYLE
  5
3BE
102
{ACAD_XDICTIONARY
360
43B
102
}
102
{ACAD_REACTORS
330
3BA
102
}
330
3BA
100
AcDbVisualStyle
  2
GouraudWithEdges
 70
     3
 71
     2
 72
     2
 73
     1
 90
        2
 40
-0.6
 41
30.0
 62
     5
 63
     7
 74
     1
 91
        0
 64
     7
 65
   257
 75
     1
175
     1
 42
1.0
 92
        0
 66
   257
 43
1.0
 76
     1
 77
     6
 78
     2
 67
     7
 79
     5
170
     0
171
     0
290
     0
174
     0
 93
       13
 44
0.0
173
     0
291
     1
 45
0.0
1001
ACAD
1000
AcDbSavedByObjectVersion
1070
     0
  0
VISUALSTYLE
  5
3C2
102
{ACAD_XDICTIONARY
360
443
102
}
102
{ACAD_REACTORS
330
3BA
102
}
330
3BA
100
AcDbVisualStyle
  2
Hidden
 70
     6
 71
     1
 72
     2
 73
     2
 90
        0
 40
-0.6
 41
-30.0
 62
     5
 63
     7
 74
     2
 91
        2
 64
     7
 65
   257
 75
     2
175
     1
 42
40.0
 92
        0
 66
   257
 43
1.0
 76
     1
 77
     6
 78
     2
 67
     7
 79
     3
170
     0
171
     0
290
     0
174
     0
 93
        1
 44
0.0
173
     0
291
     0
 45
0.0
1001
ACAD
1000
AcDbSavedByObjectVersion
1070
     0
  0
VISUALSTYLE
  5
3D0
102
{ACAD_XDICTIONARY
360
45F
102
}
102
{ACAD_REACTORS
330
3BA
102
}
330
3BA
100
AcDbVisualStyle
  2
JitterOff
 70
    20
 71
     2
 72
     2
 73
     0
 90
        0
 40
-0.6
 41
-30.0
 62
     5
 63
     7
 74
     1
 91
        4
 64
     7
 65
   257
 75
     1
175
     1
 42
1.0
 92
       10
 66
     7
 43
1.0
 76
     1
 77
     6
 78
     2
 67
     7
 79
     5
170
     0
171
     0
290
     0
174
     0
 93
        1
 44
0.0
173
     0
291
     1
 45
0.0
1001
ACAD
1000
AcDbSavedByObjectVersion
1070
     0
  0
VISUALSTYLE
  5
3C8
102
{ACAD_XDICTIONARY
360
44F
102
}
102
{ACAD_REACTORS
330
3BA
102
}
330
3BA
100
AcDbVisualStyle
  2
Linepattern
 70
    14
 71
     2
 72
     2
 73
     0
 90
        0
 40
-0.6
 41
-30.0
 62
     5
 63
     7
 74
     1
 91
        4
 64
     7
 65
   257
 75
     7
175
     7
 42
1.0
 92
        8
 66
     7
 43
1.0
 76
     1
 77
     6
 78
     2
 67
     7
 79
     5
170
     0
171
     0
290
     0
174
     0
 93
        1
 44
0.0
173
     0
291
     1
 45
0.0
1001
ACAD
1000
AcDbSavedByObjectVersion
1070
     0
  0
VISUALSTYLE
  5
3D1
102
{ACAD_XDICTIONARY
360
461
102
}
102
{ACAD_REACTORS
330
3BA
102
}
330
3BA
100
AcDbVisualStyle
  2
OverhangOff
 70
    21
 71
     2
 72
     2
 73
     0
 90
        0
 40
-0.6
 41
-30.0
 62
     5
 63
     7
 74
     1
 91
        4
 64
     7
 65
   257
 75
     1
175
     1
 42
1.0
 92
        9
 66
     7
 43
1.0
 76
     1
 77
     6
 78
     2
 67
     7
 79
     5
170
     0
171
     0
290
     0
174
     0
 93
        1
 44
0.0
173
     0
291
     1
 45
0.0
1001
ACAD
1000
AcDbSavedByObjectVersion
1070
     0
  0
VISUALSTYLE
  5
3C4
102
{ACAD_XDICTIONARY
360
447
102
}
102
{ACAD_REACTORS
330
3BA
102
}
330
3BA
100
AcDbVisualStyle
  2
Realistic
 70
     8
 71
     2
 72
     3
 73
     0
 90
        2
 40
-0.6
 41
30.0
 62
     5
 63
     7
 74
     0
 91
        0
 64
     7
 65
   257
 75
     1
175
     1
 42
1.0
 92
        8
 66
   257
 43
1.0
 76
     1
 77
     6
 78
     2
 67
     7
 79
     3
170
     0
171
     0
290
     0
174
     0
 93
       13
 44
0.0
173
     0
291
     0
 45
0.0
1001
ACAD
1000
AcDbSavedByObjectVersion
1070
     0
  0
VISUALSTYLE
  5
3CF
102
{ACAD_XDICTIONARY
360
45D
102
}
102
{ACAD_REACTORS
330
3BA
102
}
330
3BA
100
AcDbVisualStyle
  2
Shaded
 70
    27
 71
     2
 72
     2
 73
     1
 90
        2
 40
-0.6
 41
30.0
 62
     5
 63
     7
 74
     0
 91
        4
 64
     7
 65
   257
 75
     1
175
     1
 42
1.0
 92
        8
 66
   257
 43
1.0
 76
     1
 77
     6
 78
     2
 67
     8
 79
     3
170
     0
171
     0
290
     0
174
     0
 93
        5
 44
0.0
173
     0
291
     0
 45
0.0
1001
ACAD
1000
AcDbSavedByObjectVersion
1070
     0
  0
VISUALSTYLE
  5
3CE
102
{ACAD_XDICTIONARY
360
45B
102
}
102
{ACAD_REACTORS
330
3BA
102
}
330
3BA
100
AcDbVisualStyle
  2
Shaded with edges
 70
    26
 71
     2
 72
     2
 73
     1
 90
        2
 40
-0.6
 41
30.0
 62
     5
 63
     7
 74
     1
 91
        2
 64
     7
 65
   257
 75
     2
175
     1
 42
1.0
 92
        8
 66
   257
 43
1.0
 76
     1
 77
     6
 78
     2
 67
     7
 79
     3
170
     0
171
     0
290
     0
174
     0
 93
        5
 44
0.0
173
     0
291
     0
 45
0.0
1001
ACAD
1000
AcDbSavedByObjectVersion
1070
     0
  0
VISUALSTYLE
  5
3CB
102
{ACAD_XDICTIONARY
360
455
102
}
102
{ACAD_REACTORS
330
3BA
102
}
330
3BA
100
AcDbVisualStyle
  2
Shades of Gray
 70
    23
 71
     2
 72
     2
 73
     3
 90
        0
 40
-0.6
 41
-30.0
 62
     5
 63
     7
 74
     2
 91
        2
 64
     7
 65
     7
 75
     1
175
     1
 42
40.0
 92
        8
 66
     7
 43
1.0
 76
     1
 77
     6
 78
     2
 67
     7
 79
     3
170
     0
171
     0
290
     0
174
     0
 93
        1
 44
0.0
173
     0
291
     0
 45
0.0
1001
ACAD
1000
AcDbSavedByObjectVersion
1070
     0
  0
VISUALSTYLE
  5
3CC
102
{ACAD_XDICTIONARY
360
457
102
}
102
{ACAD_REACTORS
330
3BA
102
}
330
3BA
100
AcDbVisualStyle
  2
Sketchy
 70
    24
 71
     1
 72
     2
 73
     2
 90
        0
 40
-0.6
 41
-30.0
 62
     5
 63
     7
 74
     2
 91
        2
 64
     7
 65
     7
 75
     1
175
     1
 42
40.0
 92
       11
 66
     7
 43
1.0
 76
     1
 77
     6
 78
     2
 67
     7
 79
     6
170
     0
171
     0
290
     0
174
     0
 93
        1
 44
0.0
173
     0
291
     0
 45
0.0
1001
ACAD
1000
AcDbSavedByObjectVersion
1070
     0
  0
VISUALSTYLE
  5
3C7
102
{ACAD_XDICTIONARY
360
44D
102
}
102
{ACAD_REACTORS
330
3BA
102
}
330
3BA
100
AcDbVisualStyle
  2
Thicken
 70
    13
 71
     2
 72
     2
 73
     0
 90
        0
 40
-0.6
 41
-30.0
 62
     5
 63
     7
 74
     1
 91
        4
 64
     7
 65
   257
 75
     1
175
     1
 42
1.0
 92
       12
 66
     7
 43
1.0
 76
     1
 77
     6
 78
     2
 67
     7
 79
     5
170
     0
171
     0
290
     0
174
     0
 93
        1
 44
0.0
173
     0
291
     1
 45
0.0
1001
ACAD
1000
AcDbSavedByObjectVersion
1070
     0
  0
VISUALSTYLE
  5
3C1
102
{ACAD_XDICTIONARY
360
441
102
}
102
{ACAD_REACTORS
330
3BA
102
}
330
3BA
100
AcDbVisualStyle
  2
Wireframe
 70
     5
 71
     0
 72
     2
 73
     0
 90
        0
 40
-0.6
 41
-30.0
 62
     5
 63
     7
 74
     1
 91
        4
 64
     7
 65
   257
 75
     1
175
     1
 42
1.0
 92
        0
 66
   257
 43
1.0
 76
     1
 77
     6
 78
     2
 67
     7
 79
     3
170
     0
171
     0
290
     0
174
     0
 93
        1
 44
0.0
173
     0
291
     0
 45
0.0
1001
ACAD
1000
AcDbSavedByObjectVersion
1070
     0
  0
VISUALSTYLE
  5
3CD
102
{ACAD_XDICTIONARY
360
459
102
}
102
{ACAD_REACTORS
330
3BA
102
}
330
3BA
100
AcDbVisualStyle
  2
X-Ray
 70
    25
 71
     2
 72
     2
 73
     1
 90
        1
 40
0.5
 41
-30.0
 62
     5
 63
     7
 74
     1
 91
        0
 64
     7
 65
   257
 75
     1
175
     1
 42
1.0
 92
        8
 66
     7
 43
1.0
 76
     1
 77
     6
 78
     2
 67
     7
 79
     3
170
     0
171
     0
290
     0
174
     0
 93
       13
 44
0.0
173
     0
291
     0
 45
0.0
1001
ACAD
1000
AcDbSavedByObjectVersion
1070
     0
  0
DICTIONARYVAR
  5
428
102
{ACAD_REACTORS
330
423
102
}
330
423
100
DictionaryVariables
280
     0
  1
1:1
  0
DICTIONARYVAR
  5
425
102
{ACAD_REACTORS
330
423
102
}
330
423
100
DictionaryVariables
280
     0
  1
STANDARD
  0
DICTIONARYVAR
  5
424
102
{ACAD_REACTORS
330
423
102
}
330
423
100
DictionaryVariables
280
     0
  1
STANDARD
  0
DICTIONARYVAR
  5
426
102
{ACAD_REACTORS
330
423
102
}
330
423
100
DictionaryVariables
280
     0
  1
Imperial24
  0
DICTIONARYVAR
  5
427
102
{ACAD_REACTORS
330
423
102
}
330
423
100
DictionaryVariables
280
     0
  1
Imperial24
  0
DICTIONARYVAR
  5
42B
102
{ACAD_REACTORS
330
423
102
}
330
423
100
DictionaryVariables
280
     0
  1
1
  0
DICTIONARYVAR
  5
42A
102
{ACAD_REACTORS
330
423
102
}
330
423
100
DictionaryVariables
280
     0
  1
0
  0
DICTIONARYVAR
  5
429
102
{ACAD_REACTORS
330
423
102
}
330
423
100
DictionaryVariables
280
     0
  1
127
  0
DICTIONARYVAR
  5
42C
102
{ACAD_REACTORS
330
423
102
}
330
423
100
DictionaryVariables
280
     0
  1
2
  0
DICTIONARY
  5
469
330
3FB
100
AcDbDictionary
280
     1
281
     1
  3
ACAD_XREC_ROUNDTRIP
360
46A
  0
DICTIONARY
  5
46D
330
403
100
AcDbDictionary
280
     1
281
     1
  3
ACAD_XREC_ROUNDTRIP
360
46E
  0
DICTIONARY
  5
46B
330
3FF
100
AcDbDictionary
280
     1
281
     1
  3
ACAD_XREC_ROUNDTRIP
360
46C
  0
DICTIONARY
  5
3AB
330
3AA
100
AcDbDictionary
280
     1
281
     1
  3
ACAD_XREC_ROUNDTRIP
360
433
  3
BUMPTILE
360
3AD
  3
DIFFUSETILE
360
3AC
  3
OPACITYTILE
360
3B0
  3
REFLECTIONTILE
360
3AF
  3
REFRACTIONTILE
360
3B1
  3
SPECULARTILE
360
3AE
  0
DICTIONARY
  5
3A3
330
3A2
100
AcDbDictionary
280
     1
281
     1
  3
ACAD_XREC_ROUNDTRIP
360
432
  3
BUMPTILE
360
3A5
  3
DIFFUSETILE
360
3A4
  3
OPACITYTILE
360
3A8
  3
REFLECTIONTILE
360
3A7
  3
REFRACTIONTILE
360
3A9
  3
SPECULARTILE
360
3A6
  0
DICTIONARY
  5
3B3
330
3B2
100
AcDbDictionary
280
     1
281
     1
  3
ACAD_XREC_ROUNDTRIP
360
434
  3
BUMPTILE
360
3B5
  3
DIFFUSETILE
360
3B4
  3
OPACITYTILE
360
3B8
  3
REFLECTIONTILE
360
3B7
  3
REFRACTIONTILE
360
3B9
  3
SPECULARTILE
360
3B6
  0
DICTIONARY
  5
467
330
3F9
100
AcDbDictionary
280
     1
281
     1
  3
ACAD_XREC_ROUNDTRIP
360
468
  0
DICTIONARY
  5
42E
330
3F5
100
AcDbDictionary
280
     1
281
     1
  3
ACAD_ROUNDTRIP_2008_TABLESTYLE_CELLSTYLEMAP
360
42F
  3
ACAD_XREC_ROUNDTRIP
360
465
  0
DICTIONARY
  5
43F
330
3C0
100
AcDbDictionary
280
     1
281
     1
  3
ACAD_XREC_ROUNDTRIP
360
440
  0
DICTIONARY
  5
43D
330
3BF
100
AcDbDictionary
280
     1
281
     1
  3
ACAD_XREC_ROUNDTRIP
360
43E
  0
DICTIONARY
  5
44B
330
3C6
100
AcDbDictionary
280
     1
281
     1
  3
ACAD_XREC_ROUNDTRIP
360
44C
  0
DICTIONARY
  5
453
330
3CA
100
AcDbDictionary
280
     1
281
     1
  3
ACAD_XREC_ROUNDTRIP
360
454
  0
DICTIONARY
  5
445
330
3C3
100
AcDbDictionary
280
     1
281
     1
  3
ACAD_XREC_ROUNDTRIP
360
446
  0
DICTIONARY
  5
449
330
3C5
100
AcDbDictionary
280
     1
281
     1
  3
ACAD_XREC_ROUNDTRIP
360
44A
  0
DICTIONARY
  5
463
330
3D2
100
AcDbDictionary
280
     1
281
     1
  3
ACAD_XREC_ROUNDTRIP
360
464
  0
DICTIONARY
  5
451
330
3C9
100
AcDbDictionary
280
     1
281
     1
  3
ACAD_XREC_ROUNDTRIP
360
452
  0
DICTIONARY
  5
435
330
3BB
100
AcDbDictionary
280
     1
281
     1
  3
ACAD_XREC_ROUNDTRIP
360
436
  0
DICTIONARY
  5
437
330
3BC
100
AcDbDictionary
280
     1
281
     1
  3
ACAD_XREC_ROUNDTRIP
360
438
  0
DICTIONARY
  5
439
330
3BD
100
AcDbDictionary
280
     1
281
     1
  3
ACAD_XREC_ROUNDTRIP
360
43A
  0
DICTIONARY
  5
43B
330
3BE
100
AcDbDictionary
280
     1
281
     1
  3
ACAD_XREC_ROUNDTRIP
360
43C
  0
DICTIONARY
  5
443
330
3C2
100
AcDbDictionary
280
     1
281
     1
  3
ACAD_XREC_ROUNDTRIP
360
444
  0
DICTIONARY
  5
45F
330
3D0
100
AcDbDictionary
280
     1
281
     1
  3
ACAD_XREC_ROUNDTRIP
360
460
  0
DICTIONARY
  5
44F
330
3C8
100
AcDbDictionary
280
     1
281
     1
  3
ACAD_XREC_ROUNDTRIP
360
450
  0
DICTIONARY
  5
461
330
3D1
100
AcDbDictionary
280
     1
281
     1
  3
ACAD_XREC_ROUNDTRIP
360
462
  0
DICTIONARY
  5
447
330
3C4
100
AcDbDictionary
280
     1
281
     1
  3
ACAD_XREC_ROUNDTRIP
360
448
  0
DICTIONARY
  5
45D
330
3CF
100
AcDbDictionary
280
     1
281
     1
  3
ACAD_XREC_ROUNDTRIP
360
45E
  0
DICTIONARY
  5
45B
330
3CE
100
AcDbDictionary
280
     1
281
     1
  3
ACAD_XREC_ROUNDTRIP
360
45C
  0
DICTIONARY
  5
455
330
3CB
100
AcDbDictionary
280
     1
281
     1
  3
ACAD_XREC_ROUNDTRIP
360
456
  0
DICTIONARY
  5
457
330
3CC
100
AcDbDictionary
280
     1
281
     1
  3
ACAD_XREC_ROUNDTRIP
360
458
  0
DICTIONARY
  5
44D
330
3C7
100
AcDbDictionary
280
     1
281
     1
  3
ACAD_XREC_ROUNDTRIP
360
44E
  0
DICTIONARY
  5
441
330
3C1
100
AcDbDictionary
280
     1
281
     1
  3
ACAD_XREC_ROUNDTRIP
360
442
  0
DICTIONARY
  5
459
330
3CD
100
AcDbDictionary
280
     1
281
     1
  3
ACAD_XREC_ROUNDTRIP
360
45A
  0
XRECORD
  5
46A
102
{ACAD_REACTORS
330
469
102
}
330
469
100
AcDbXrecord
280
     1
102
DISPLAYNAME
  1
Imperial24
102
FLAGS
 90
        0
  0
XRECORD
  5
46E
102
{ACAD_REACTORS
330
46D
102
}
330
46D
100
AcDbXrecord
280
     1
102
SHADEPLOT
 70
     0
102
SHADEPLOTRESLEVEL
 70
     2
102
SHADEPLOTCUSTOMDPI
 70
   300
  0
XRECORD
  5
46C
102
{ACAD_REACTORS
330
46B
102
}
330
46B
100
AcDbXrecord
280
     1
102
SHADEPLOT
 70
     0
102
SHADEPLOTRESLEVEL
 70
     2
102
SHADEPLOTCUSTOMDPI
 70
   300
  0
XRECORD
  5
433
102
{ACAD_REACTORS
330
3AB
102
}
330
3AB
100
AcDbXrecord
280
     1
102
MATERIAL
148
0.0
149
0.0
149
0.0
 93
        0
 94
      127
282
     0
 72
     0
 77
     0
171
     0
175
     0
179
     0
273
     0
  0
XRECORD
  5
3AD
102
{ACAD_REACTORS
330
3AB
102
}
330
3AB
100
AcDbXrecord
280
     1
270
     1
271
     1
  0
XRECORD
  5
3AC
102
{ACAD_REACTORS
330
3AB
102
}
330
3AB
100
AcDbXrecord
280
     1
270
     1
271
     1
  0
XRECORD
  5
3B0
102
{ACAD_REACTORS
330
3AB
102
}
330
3AB
100
AcDbXrecord
280
     1
270
     1
271
     1
  0
XRECORD
  5
3AF
102
{ACAD_REACTORS
330
3AB
102
}
330
3AB
100
AcDbXrecord
280
     1
270
     1
271
     1
  0
XRECORD
  5
3B1
102
{ACAD_REACTORS
330
3AB
102
}
330
3AB
100
AcDbXrecord
280
     1
270
     1
271
     1
  0
XRECORD
  5
3AE
102
{ACAD_REACTORS
330
3AB
102
}
330
3AB
100
AcDbXrecord
280
     1
270
     1
271
     1
  0
XRECORD
  5
432
102
{ACAD_REACTORS
330
3A3
102
}
330
3A3
100
AcDbXrecord
280
     1
102
MATERIAL
148
0.0
149
0.0
149
0.0
 93
        0
 94
      127
282
     0
 72
     0
 77
     0
171
     0
175
     0
179
     0
273
     0
  0
XRECORD
  5
3A5
102
{ACAD_REACTORS
330
3A3
102
}
330
3A3
100
AcDbXrecord
280
     1
270
     1
271
     1
  0
XRECORD
  5
3A4
102
{ACAD_REACTORS
330
3A3
102
}
330
3A3
100
AcDbXrecord
280
     1
270
     1
271
     1
  0
XRECORD
  5
3A8
102
{ACAD_REACTORS
330
3A3
102
}
330
3A3
100
AcDbXrecord
280
     1
270
     1
271
     1
  0
XRECORD
  5
3A7
102
{ACAD_REACTORS
330
3A3
102
}
330
3A3
100
AcDbXrecord
280
     1
270
     1
271
     1
  0
XRECORD
  5
3A9
102
{ACAD_REACTORS
330
3A3
102
}
330
3A3
100
AcDbXrecord
280
     1
270
     1
271
     1
  0
XRECORD
  5
3A6
102
{ACAD_REACTORS
330
3A3
102
}
330
3A3
100
AcDbXrecord
280
     1
270
     1
271
     1
  0
XRECORD
  5
434
102
{ACAD_REACTORS
330
3B3
102
}
330
3B3
100
AcDbXrecord
280
     1
102
MATERIAL
148
0.0
149
0.0
149
0.0
 93
        0
 94
      127
282
     0
 72
     0
 77
     0
171
     0
175
     0
179
     0
273
     0
  0
XRECORD
  5
3B5
102
{ACAD_REACTORS
330
3B3
102
}
330
3B3
100
AcDbXrecord
280
     1
270
     1
271
     1
  0
XRECORD
  5
3B4
102
{ACAD_REACTORS
330
3B3
102
}
330
3B3
100
AcDbXrecord
280
     1
270
     1
271
     1
  0
XRECORD
  5
3B8
102
{ACAD_REACTORS
330
3B3
102
}
330
3B3
100
AcDbXrecord
280
     1
270
     1
271
     1
  0
XRECORD
  5
3B7
102
{ACAD_REACTORS
330
3B3
102
}
330
3B3
100
AcDbXrecord
280
     1
270
     1
271
     1
  0
XRECORD
  5
3B9
102
{ACAD_REACTORS
330
3B3
102
}
330
3B3
100
AcDbXrecord
280
     1
270
     1
271
     1
  0
XRECORD
  5
3B6
102
{ACAD_REACTORS
330
3B3
102
}
330
3B3
100
AcDbXrecord
280
     1
270
     1
271
     1
  0
XRECORD
  5
468
102
{ACAD_REACTORS
330
467
102
}
330
467
100
AcDbXrecord
280
     1
102
DISPLAYNAME
  1
Imperial24
102
FLAGS
 90
        0
  0
CELLSTYLEMAP
  5
42F
102
{ACAD_REACTORS
330
42E
102
}
330
42E
100
AcDbCellStyleMap
 90
        3
300
CELLSTYLE
  1
TABLEFORMAT_BEGIN
 90
        5
170
     1
 91
        0
 92
    32768
 62
   257
 93
        1
300
CONTENTFORMAT
  1
CONTENTFORMAT_BEGIN
 90
        0
 91
        0
 92
      512
 93
        0
300

 40
0.0
140
1.0
 94
        5
 62
     0
340
3E6
144
0.25
309
CONTENTFORMAT_END
171
     0
 94
        0
309
TABLEFORMAT_END
  1
CELLSTYLE_BEGIN
 90
        1
 91
        1
300
_TITLE
309
CELLSTYLE_END
300
CELLSTYLE
  1
TABLEFORMAT_BEGIN
 90
        5
170
     1
 91
        0
 92
        0
 62
   257
 93
        1
300
CONTENTFORMAT
  1
CONTENTFORMAT_BEGIN
 90
        0
 91
        0
 92
      512
 93
        0
300

 40
0.0
140
1.0
 94
        5
 62
     0
340
3E6
144
0.18
309
CONTENTFORMAT_END
171
     0
 94
        0
309
TABLEFORMAT_END
  1
CELLSTYLE_BEGIN
 90
        2
 91
        1
300
_HEADER
309
CELLSTYLE_END
300
CELLSTYLE
  1
TABLEFORMAT_BEGIN
 90
        5
170
     1
 91
        0
 92
        0
 62
   257
 93
        1
300
CONTENTFORMAT
  1
CONTENTFORMAT_BEGIN
 90
        0
 91
        0
 92
      512
 93
        0
300

 40
0.0
140
1.0
 94
        2
 62
     0
340
3E6
144
0.18
309
CONTENTFORMAT_END
171
     0
 94
        0
309
TABLEFORMAT_END
  1
CELLSTYLE_BEGIN
 90
        3
 91
        2
300
_DATA
309
CELLSTYLE_END
  0
XRECORD
  5
465
102
{ACAD_REACTORS
330
42E
102
}
330
42E
100
AcDbXrecord
280
     1
102
ACAD_ROUNDTRIP_PRE2007_TABLESTYLE
 90
      512
 91
        0
  1

 92
      512
 93
        0
  2

 94
      512
 95
        0
  3

  0
XRECORD
  5
440
102
{ACAD_REACTORS
330
43F
102
}
330
43F
100
AcDbXrecord
280
     1
102
RTVSPost2010Prop28
280
     1
102
RTVSPost2010PropOp28
 70
     1
102
RTVSPost2010Prop29
280
     1
102
RTVSPost2010PropOp29
 70
     1
102
RTVSPost2010Prop30
280
     0
102
RTVSPost2010PropOp30
 70
     1
102
RTVSPost2010Prop31
280
     0
102
RTVSPost2010PropOp31
 70
     1
102
RTVSPost2010Prop32
280
     0
102
RTVSPost2010PropOp32
 70
     1
102
RTVSPost2010Prop33
280
     0
102
RTVSPost2010PropOp33
 70
     1
102
RTVSPost2010Prop34
280
     0
102
RTVSPost2010PropOp34
 70
     1
102
RTVSPost2010Prop35
280
     0
102
RTVSPost2010PropOp35
 70
     1
102
RTVSPost2010Prop36
280
     0
102
RTVSPost2010PropOp36
 70
     1
102
RTVSPost2010Prop37
 90
       50
102
RTVSPost2010PropOp37
 70
     1
102
RTVSPost2010Prop38
140
0.0
102
RTVSPost2010PropOp38
 70
     1
102
RTVSPost2010Prop39
140
1.0
102
RTVSPost2010PropOp39
 70
     1
102
RTVSPost2010Prop40
 90
        0
102
RTVSPost2010PropOp40
 70
     1
102
RTVSPost2010Prop41ColorIndex
 90
       18
102
RTVSPost2010Prop41ColorRGB
 90
        0
102
RTVSPost2010PropOp41
 70
     1
102
RTVSPost2010Prop42
 90
       50
102
RTVSPost2010PropOp42
 70
     1
102
RTVSPost2010Prop43
 90
        3
102
RTVSPost2010PropOp43
 70
     1
102
RTVSPost2010Prop44ColorIndex
 90
        5
102
RTVSPost2010Prop44ColorRGB
 90
      255
102
RTVSPost2010PropOp44
 70
     1
102
RTVSPost2010Prop45
280
     0
102
RTVSPost2010PropOp45
 70
     1
102
RTVSPost2010Prop46
 90
       50
102
RTVSPost2010PropOp46
 70
     1
102
RTVSPost2010Prop47
 90
       50
102
RTVSPost2010PropOp47
 70
     1
102
RTVSPost2010Prop48
 90
       50
102
RTVSPost2010PropOp48
 70
     1
102
RTVSPost2010Prop49
280
     0
102
RTVSPost2010PropOp49
 70
     1
102
RTVSPost2010Prop50
 90
       50
102
RTVSPost2010PropOp50
 70
     1
102
RTVSPost2010Prop51ColorIndex
 90
      256
102
RTVSPost2010Prop51ColorRGB
 90
-16777216
102
RTVSPost2010PropOp51
 70
     0
102
RTVSPost2010Prop52
140
1.0
102
RTVSPost2010PropOp52
 70
     0
102
RTVSPost2010Prop53
 90
        2
102
RTVSPost2010PropOp53
 70
     1
102
RTVSPost2010Prop54
  1
strokes_ogs.tif
102
RTVSPost2010PropOp54
 70
     1
102
RTVSPost2010Prop55
280
     0
102
RTVSPost2010PropOp55
 70
     1
102
RTVSPost2010Prop56
140
1.0
102
RTVSPost2010PropOp56
 70
     1
102
RTVSPost2010Prop57
140
1.0
102
RTVSPost2010PropOp57
 70
     1
102
RTVSPropertyOp0
 70
     1
102
RTVSPropertyOp1
 70
     1
102
RTVSPropertyOp2
 70
     1
102
RTVSPropertyOp3
 70
     1
102
RTVSPropertyOp4
 70
     1
102
RTVSPropertyOp5
 70
     1
102
RTVSPropertyOp6
 70
     1
102
RTVSPropertyOp7
 70
     1
102
RTVSPropertyOp8
 70
     1
102
RTVSPropertyOp9
 70
     1
102
RTVSPropertyOp10
 70
     1
102
RTVSPropertyOp11
 70
     1
102
RTVSPropertyOp12
 70
     1
102
RTVSPropertyOp13
 70
     1
102
RTVSPropertyOp14
 70
     1
102
RTVSPropertyOp15
 70
     1
102
RTVSPropertyOp16
 70
     1
102
RTVSPropertyOp17
 70
     1
102
RTVSPropertyOp18
 70
     1
102
RTVSPropertyOp19
 70
     1
102
RTVSPropertyOp20
 70
     1
102
RTVSPropertyOp21
 70
     1
102
RTVSPropertyOp22
 70
     1
102
RTVSPropertyOp23
 70
     1
102
RTVSPropertyOp24
 70
     1
102
RTVSPropertyOp25
 70
     1
102
RTVSPropertyOp26
 70
     1
102
RTVSPropertyOp27
 70
     1
102
RTVSPropertyOp28
 70
     1
102
RTVSPropertyOp29
 70
     1
102
RTVSPropertyOp30
 70
     1
102
RTVSPropertyOp31
 70
     1
102
RTVSPropertyOp32
 70
     1
102
RTVSPropertyOp33
 70
     1
102
RTVSPropertyOp34
 70
     1
102
RTVSPropertyOp35
 70
     1
102
RTVSPropertyOp36
 70
     1
102
RTVSPropertyOp37
 70
     1
102
RTVSPropertyOp38
 70
     1
102
RTVSPropertyOp39
 70
     1
102
RTVSPropertyOp40
 70
     1
102
RTVSPropertyOp41
 70
     1
102
RTVSPropertyOp42
 70
     1
102
RTVSPropertyOp43
 70
     1
102
RTVSPropertyOp44
 70
     1
102
RTVSPropertyOp45
 70
     1
102
RTVSPropertyOp46
 70
     1
102
RTVSPropertyOp47
 70
     1
102
RTVSPropertyOp48
 70
     1
102
RTVSPropertyOp49
 70
     1
102
RTVSPropertyOp50
 70
     1
102
RTVSPropertyOp51
 70
     0
102
RTVSPropertyOp52
 70
     0
102
RTVSPropertyOp53
 70
     1
102
RTVSPropertyOp54
 70
     1
102
RTVSPropertyOp55
 70
     1
102
RTVSPropertyOp56
 70
     1
102
RTVSPropertyOp57
 70
     1
102
RTVSPropertyOp58
 70
     1
102
RTVSPropertyOp59
 70
     1
102
RTVSPropertyOp60
 70
     1
102
RTVSPropertyOp61
 70
     1
102
RTVSPropertyOp62
 70
     1
  0
XRECORD
  5
43E
102
{ACAD_REACTORS
330
43D
102
}
330
43D
100
AcDbXrecord
280
     1
102
RTVSPost2010Prop28
280
     0
102
RTVSPost2010PropOp28
 70
     1
102
RTVSPost2010Prop29
280
     1
102
RTVSPost2010PropOp29
 70
     1
102
RTVSPost2010Prop30
280
     1
102
RTVSPost2010PropOp30
 70
     1
102
RTVSPost2010Prop31
280
     0
102
RTVSPost2010PropOp31
 70
     1
102
RTVSPost2010Prop32
280
     0
102
RTVSPost2010PropOp32
 70
     1
102
RTVSPost2010Prop33
280
     0
102
RTVSPost2010PropOp33
 70
     1
102
RTVSPost2010Prop34
280
     0
102
RTVSPost2010PropOp34
 70
     1
102
RTVSPost2010Prop35
280
     0
102
RTVSPost2010PropOp35
 70
     1
102
RTVSPost2010Prop36
280
     0
102
RTVSPost2010PropOp36
 70
     1
102
RTVSPost2010Prop37
 90
       50
102
RTVSPost2010PropOp37
 70
     1
102
RTVSPost2010Prop38
140
0.0
102
RTVSPost2010PropOp38
 70
     1
102
RTVSPost2010Prop39
140
1.0
102
RTVSPost2010PropOp39
 70
     1
102
RTVSPost2010Prop40
 90
        0
102
RTVSPost2010PropOp40
 70
     1
102
RTVSPost2010Prop41ColorIndex
 90
       18
102
RTVSPost2010Prop41ColorRGB
 90
        0
102
RTVSPost2010PropOp41
 70
     1
102
RTVSPost2010Prop42
 90
       50
102
RTVSPost2010PropOp42
 70
     1
102
RTVSPost2010Prop43
 90
        3
102
RTVSPost2010PropOp43
 70
     1
102
RTVSPost2010Prop44ColorIndex
 90
        5
102
RTVSPost2010Prop44ColorRGB
 90
      255
102
RTVSPost2010PropOp44
 70
     1
102
RTVSPost2010Prop45
280
     0
102
RTVSPost2010PropOp45
 70
     1
102
RTVSPost2010Prop46
 90
       50
102
RTVSPost2010PropOp46
 70
     1
102
RTVSPost2010Prop47
 90
       50
102
RTVSPost2010PropOp47
 70
     1
102
RTVSPost2010Prop48
 90
       50
102
RTVSPost2010PropOp48
 70
     1
102
RTVSPost2010Prop49
280
     0
102
RTVSPost2010PropOp49
 70
     1
102
RTVSPost2010Prop50
 90
       50
102
RTVSPost2010PropOp50
 70
     1
102
RTVSPost2010Prop51ColorIndex
 90
      256
102
RTVSPost2010Prop51ColorRGB
 90
-16777216
102
RTVSPost2010PropOp51
 70
     0
102
RTVSPost2010Prop52
140
1.0
102
RTVSPost2010PropOp52
 70
     0
102
RTVSPost2010Prop53
 90
        2
102
RTVSPost2010PropOp53
 70
     1
102
RTVSPost2010Prop54
  1
strokes_ogs.tif
102
RTVSPost2010PropOp54
 70
     1
102
RTVSPost2010Prop55
280
     0
102
RTVSPost2010PropOp55
 70
     1
102
RTVSPost2010Prop56
140
1.0
102
RTVSPost2010PropOp56
 70
     1
102
RTVSPost2010Prop57
140
1.0
102
RTVSPost2010PropOp57
 70
     1
102
RTVSPropertyOp0
 70
     1
102
RTVSPropertyOp1
 70
     1
102
RTVSPropertyOp2
 70
     1
102
RTVSPropertyOp3
 70
     1
102
RTVSPropertyOp4
 70
     1
102
RTVSPropertyOp5
 70
     1
102
RTVSPropertyOp6
 70
     1
102
RTVSPropertyOp7
 70
     1
102
RTVSPropertyOp8
 70
     1
102
RTVSPropertyOp9
 70
     1
102
RTVSPropertyOp10
 70
     1
102
RTVSPropertyOp11
 70
     1
102
RTVSPropertyOp12
 70
     1
102
RTVSPropertyOp13
 70
     1
102
RTVSPropertyOp14
 70
     1
102
RTVSPropertyOp15
 70
     1
102
RTVSPropertyOp16
 70
     1
102
RTVSPropertyOp17
 70
     1
102
RTVSPropertyOp18
 70
     1
102
RTVSPropertyOp19
 70
     1
102
RTVSPropertyOp20
 70
     1
102
RTVSPropertyOp21
 70
     1
102
RTVSPropertyOp22
 70
     1
102
RTVSPropertyOp23
 70
     1
102
RTVSPropertyOp24
 70
     1
102
RTVSPropertyOp25
 70
     1
102
RTVSPropertyOp26
 70
     1
102
RTVSPropertyOp27
 70
     1
102
RTVSPropertyOp28
 70
     1
102
RTVSPropertyOp29
 70
     1
102
RTVSPropertyOp30
 70
     1
102
RTVSPropertyOp31
 70
     1
102
RTVSPropertyOp32
 70
     1
102
RTVSPropertyOp33
 70
     1
102
RTVSPropertyOp34
 70
     1
102
RTVSPropertyOp35
 70
     1
102
RTVSPropertyOp36
 70
     1
102
RTVSPropertyOp37
 70
     1
102
RTVSPropertyOp38
 70
     1
102
RTVSPropertyOp39
 70
     1
102
RTVSPropertyOp40
 70
     1
102
RTVSPropertyOp41
 70
     1
102
RTVSPropertyOp42
 70
     1
102
RTVSPropertyOp43
 70
     1
102
RTVSPropertyOp44
 70
     1
102
RTVSPropertyOp45
 70
     1
102
RTVSPropertyOp46
 70
     1
102
RTVSPropertyOp47
 70
     1
102
RTVSPropertyOp48
 70
     1
102
RTVSPropertyOp49
 70
     1
102
RTVSPropertyOp50
 70
     1
102
RTVSPropertyOp51
 70
     0
102
RTVSPropertyOp52
 70
     0
102
RTVSPropertyOp53
 70
     1
102
RTVSPropertyOp54
 70
     1
102
RTVSPropertyOp55
 70
     1
102
RTVSPropertyOp56
 70
     1
102
RTVSPropertyOp57
 70
     1
102
RTVSPropertyOp58
 70
     1
102
RTVSPropertyOp59
 70
     1
102
RTVSPropertyOp60
 70
     1
102
RTVSPropertyOp61
 70
     1
102
RTVSPropertyOp62
 70
     1
  0
XRECORD
  5
44C
102
{ACAD_REACTORS
330
44B
102
}
330
44B
100
AcDbXrecord
280
     1
102
RTVSPost2010Prop28
280
     0
102
RTVSPost2010PropOp28
 70
     1
102
RTVSPost2010Prop29
280
     1
102
RTVSPost2010PropOp29
 70
     1
102
RTVSPost2010Prop30
280
     1
102
RTVSPost2010PropOp30
 70
     1
102
RTVSPost2010Prop31
280
     0
102
RTVSPost2010PropOp31
 70
     1
102
RTVSPost2010Prop32
280
     0
102
RTVSPost2010PropOp32
 70
     1
102
RTVSPost2010Prop33
280
     0
102
RTVSPost2010PropOp33
 70
     1
102
RTVSPost2010Prop34
280
     0
102
RTVSPost2010PropOp34
 70
     1
102
RTVSPost2010Prop35
280
     0
102
RTVSPost2010PropOp35
 70
     1
102
RTVSPost2010Prop36
280
     0
102
RTVSPost2010PropOp36
 70
     1
102
RTVSPost2010Prop37
 90
       50
102
RTVSPost2010PropOp37
 70
     1
102
RTVSPost2010Prop38
140
0.0
102
RTVSPost2010PropOp38
 70
     1
102
RTVSPost2010Prop39
140
1.0
102
RTVSPost2010PropOp39
 70
     1
102
RTVSPost2010Prop40
 90
        0
102
RTVSPost2010PropOp40
 70
     1
102
RTVSPost2010Prop41ColorIndex
 90
       18
102
RTVSPost2010Prop41ColorRGB
 90
        0
102
RTVSPost2010PropOp41
 70
     1
102
RTVSPost2010Prop42
 90
       50
102
RTVSPost2010PropOp42
 70
     1
102
RTVSPost2010Prop43
 90
        3
102
RTVSPost2010PropOp43
 70
     1
102
RTVSPost2010Prop44ColorIndex
 90
        5
102
RTVSPost2010Prop44ColorRGB
 90
      255
102
RTVSPost2010PropOp44
 70
     1
102
RTVSPost2010Prop45
280
     0
102
RTVSPost2010PropOp45
 70
     1
102
RTVSPost2010Prop46
 90
       50
102
RTVSPost2010PropOp46
 70
     1
102
RTVSPost2010Prop47
 90
       50
102
RTVSPost2010PropOp47
 70
     1
102
RTVSPost2010Prop48
 90
       50
102
RTVSPost2010PropOp48
 70
     1
102
RTVSPost2010Prop49
280
     0
102
RTVSPost2010PropOp49
 70
     1
102
RTVSPost2010Prop50
 90
       50
102
RTVSPost2010PropOp50
 70
     1
102
RTVSPost2010Prop51ColorIndex
 90
      256
102
RTVSPost2010Prop51ColorRGB
 90
-16777216
102
RTVSPost2010PropOp51
 70
     0
102
RTVSPost2010Prop52
140
1.0
102
RTVSPost2010PropOp52
 70
     0
102
RTVSPost2010Prop53
 90
        2
102
RTVSPost2010PropOp53
 70
     1
102
RTVSPost2010Prop54
  1
strokes_ogs.tif
102
RTVSPost2010PropOp54
 70
     1
102
RTVSPost2010Prop55
280
     0
102
RTVSPost2010PropOp55
 70
     1
102
RTVSPost2010Prop56
140
1.0
102
RTVSPost2010PropOp56
 70
     1
102
RTVSPost2010Prop57
140
1.0
102
RTVSPost2010PropOp57
 70
     1
102
RTVSPropertyOp0
 70
     1
102
RTVSPropertyOp1
 70
     1
102
RTVSPropertyOp2
 70
     1
102
RTVSPropertyOp3
 70
     1
102
RTVSPropertyOp4
 70
     1
102
RTVSPropertyOp5
 70
     1
102
RTVSPropertyOp6
 70
     1
102
RTVSPropertyOp7
 70
     1
102
RTVSPropertyOp8
 70
     1
102
RTVSPropertyOp9
 70
     1
102
RTVSPropertyOp10
 70
     1
102
RTVSPropertyOp11
 70
     1
102
RTVSPropertyOp12
 70
     1
102
RTVSPropertyOp13
 70
     1
102
RTVSPropertyOp14
 70
     1
102
RTVSPropertyOp15
 70
     1
102
RTVSPropertyOp16
 70
     1
102
RTVSPropertyOp17
 70
     1
102
RTVSPropertyOp18
 70
     1
102
RTVSPropertyOp19
 70
     1
102
RTVSPropertyOp20
 70
     1
102
RTVSPropertyOp21
 70
     1
102
RTVSPropertyOp22
 70
     1
102
RTVSPropertyOp23
 70
     1
102
RTVSPropertyOp24
 70
     1
102
RTVSPropertyOp25
 70
     1
102
RTVSPropertyOp26
 70
     1
102
RTVSPropertyOp27
 70
     1
102
RTVSPropertyOp28
 70
     1
102
RTVSPropertyOp29
 70
     1
102
RTVSPropertyOp30
 70
     1
102
RTVSPropertyOp31
 70
     1
102
RTVSPropertyOp32
 70
     1
102
RTVSPropertyOp33
 70
     1
102
RTVSPropertyOp34
 70
     1
102
RTVSPropertyOp35
 70
     1
102
RTVSPropertyOp36
 70
     1
102
RTVSPropertyOp37
 70
     1
102
RTVSPropertyOp38
 70
     1
102
RTVSPropertyOp39
 70
     1
102
RTVSPropertyOp40
 70
     1
102
RTVSPropertyOp41
 70
     1
102
RTVSPropertyOp42
 70
     1
102
RTVSPropertyOp43
 70
     1
102
RTVSPropertyOp44
 70
     1
102
RTVSPropertyOp45
 70
     1
102
RTVSPropertyOp46
 70
     1
102
RTVSPropertyOp47
 70
     1
102
RTVSPropertyOp48
 70
     1
102
RTVSPropertyOp49
 70
     1
102
RTVSPropertyOp50
 70
     1
102
RTVSPropertyOp51
 70
     0
102
RTVSPropertyOp52
 70
     0
102
RTVSPropertyOp53
 70
     1
102
RTVSPropertyOp54
 70
     1
102
RTVSPropertyOp55
 70
     1
102
RTVSPropertyOp56
 70
     1
102
RTVSPropertyOp57
 70
     1
102
RTVSPropertyOp58
 70
     1
102
RTVSPropertyOp59
 70
     1
102
RTVSPropertyOp60
 70
     1
102
RTVSPropertyOp61
 70
     1
102
RTVSPropertyOp62
 70
     1
  0
XRECORD
  5
454
102
{ACAD_REACTORS
330
453
102
}
330
453
100
AcDbXrecord
280
     1
102
RTVSPost2010Prop28
280
     0
102
RTVSPost2010PropOp28
 70
     1
102
RTVSPost2010Prop29
280
     1
102
RTVSPost2010PropOp29
 70
     1
102
RTVSPost2010Prop30
280
     1
102
RTVSPost2010PropOp30
 70
     1
102
RTVSPost2010Prop31
280
     0
102
RTVSPost2010PropOp31
 70
     1
102
RTVSPost2010Prop32
280
     0
102
RTVSPost2010PropOp32
 70
     1
102
RTVSPost2010Prop33
280
     0
102
RTVSPost2010PropOp33
 70
     1
102
RTVSPost2010Prop34
280
     0
102
RTVSPost2010PropOp34
 70
     1
102
RTVSPost2010Prop35
280
     0
102
RTVSPost2010PropOp35
 70
     1
102
RTVSPost2010Prop36
280
     0
102
RTVSPost2010PropOp36
 70
     1
102
RTVSPost2010Prop37
 90
       50
102
RTVSPost2010PropOp37
 70
     1
102
RTVSPost2010Prop38
140
0.0
102
RTVSPost2010PropOp38
 70
     1
102
RTVSPost2010Prop39
140
1.0
102
RTVSPost2010PropOp39
 70
     1
102
RTVSPost2010Prop40
 90
        0
102
RTVSPost2010PropOp40
 70
     1
102
RTVSPost2010Prop41ColorIndex
 90
       18
102
RTVSPost2010Prop41ColorRGB
 90
        0
102
RTVSPost2010PropOp41
 70
     1
102
RTVSPost2010Prop42
 90
       50
102
RTVSPost2010PropOp42
 70
     1
102
RTVSPost2010Prop43
 90
        3
102
RTVSPost2010PropOp43
 70
     1
102
RTVSPost2010Prop44ColorIndex
 90
        5
102
RTVSPost2010Prop44ColorRGB
 90
      255
102
RTVSPost2010PropOp44
 70
     1
102
RTVSPost2010Prop45
280
     0
102
RTVSPost2010PropOp45
 70
     1
102
RTVSPost2010Prop46
 90
       50
102
RTVSPost2010PropOp46
 70
     1
102
RTVSPost2010Prop47
 90
       50
102
RTVSPost2010PropOp47
 70
     1
102
RTVSPost2010Prop48
 90
       50
102
RTVSPost2010PropOp48
 70
     1
102
RTVSPost2010Prop49
280
     0
102
RTVSPost2010PropOp49
 70
     1
102
RTVSPost2010Prop50
 90
       50
102
RTVSPost2010PropOp50
 70
     1
102
RTVSPost2010Prop51ColorIndex
 90
      256
102
RTVSPost2010Prop51ColorRGB
 90
-16777216
102
RTVSPost2010PropOp51
 70
     0
102
RTVSPost2010Prop52
140
1.0
102
RTVSPost2010PropOp52
 70
     0
102
RTVSPost2010Prop53
 90
        2
102
RTVSPost2010PropOp53
 70
     1
102
RTVSPost2010Prop54
  1
strokes_ogs.tif
102
RTVSPost2010PropOp54
 70
     1
102
RTVSPost2010Prop55
280
     0
102
RTVSPost2010PropOp55
 70
     1
102
RTVSPost2010Prop56
140
1.0
102
RTVSPost2010PropOp56
 70
     1
102
RTVSPost2010Prop57
140
1.0
102
RTVSPost2010PropOp57
 70
     1
102
RTVSPropertyOp0
 70
     1
102
RTVSPropertyOp1
 70
     1
102
RTVSPropertyOp2
 70
     1
102
RTVSPropertyOp3
 70
     1
102
RTVSPropertyOp4
 70
     1
102
RTVSPropertyOp5
 70
     1
102
RTVSPropertyOp6
 70
     1
102
RTVSPropertyOp7
 70
     1
102
RTVSPropertyOp8
 70
     1
102
RTVSPropertyOp9
 70
     1
102
RTVSPropertyOp10
 70
     1
102
RTVSPropertyOp11
 70
     1
102
RTVSPropertyOp12
 70
     1
102
RTVSPropertyOp13
 70
     1
102
RTVSPropertyOp14
 70
     1
102
RTVSPropertyOp15
 70
     1
102
RTVSPropertyOp16
 70
     1
102
RTVSPropertyOp17
 70
     1
102
RTVSPropertyOp18
 70
     1
102
RTVSPropertyOp19
 70
     1
102
RTVSPropertyOp20
 70
     1
102
RTVSPropertyOp21
 70
     1
102
RTVSPropertyOp22
 70
     1
102
RTVSPropertyOp23
 70
     1
102
RTVSPropertyOp24
 70
     1
102
RTVSPropertyOp25
 70
     1
102
RTVSPropertyOp26
 70
     1
102
RTVSPropertyOp27
 70
     1
102
RTVSPropertyOp28
 70
     1
102
RTVSPropertyOp29
 70
     1
102
RTVSPropertyOp30
 70
     1
102
RTVSPropertyOp31
 70
     1
102
RTVSPropertyOp32
 70
     1
102
RTVSPropertyOp33
 70
     1
102
RTVSPropertyOp34
 70
     1
102
RTVSPropertyOp35
 70
     1
102
RTVSPropertyOp36
 70
     1
102
RTVSPropertyOp37
 70
     1
102
RTVSPropertyOp38
 70
     1
102
RTVSPropertyOp39
 70
     1
102
RTVSPropertyOp40
 70
     1
102
RTVSPropertyOp41
 70
     1
102
RTVSPropertyOp42
 70
     1
102
RTVSPropertyOp43
 70
     1
102
RTVSPropertyOp44
 70
     1
102
RTVSPropertyOp45
 70
     1
102
RTVSPropertyOp46
 70
     1
102
RTVSPropertyOp47
 70
     1
102
RTVSPropertyOp48
 70
     1
102
RTVSPropertyOp49
 70
     1
102
RTVSPropertyOp50
 70
     1
102
RTVSPropertyOp51
 70
     0
102
RTVSPropertyOp52
 70
     0
102
RTVSPropertyOp53
 70
     1
102
RTVSPropertyOp54
 70
     1
102
RTVSPropertyOp55
 70
     1
102
RTVSPropertyOp56
 70
     1
102
RTVSPropertyOp57
 70
     1
102
RTVSPropertyOp58
 70
     1
102
RTVSPropertyOp59
 70
     1
102
RTVSPropertyOp60
 70
     1
102
RTVSPropertyOp61
 70
     1
102
RTVSPropertyOp62
 70
     1
  0
XRECORD
  5
446
102
{ACAD_REACTORS
330
445
102
}
330
445
100
AcDbXrecord
280
     1
102
RTVSPost2010Prop28
280
     0
102
RTVSPost2010PropOp28
 70
     1
102
RTVSPost2010Prop29
280
     1
102
RTVSPost2010PropOp29
 70
     1
102
RTVSPost2010Prop30
280
     1
102
RTVSPost2010PropOp30
 70
     1
102
RTVSPost2010Prop31
280
     0
102
RTVSPost2010PropOp31
 70
     1
102
RTVSPost2010Prop32
280
     0
102
RTVSPost2010PropOp32
 70
     1
102
RTVSPost2010Prop33
280
     0
102
RTVSPost2010PropOp33
 70
     1
102
RTVSPost2010Prop34
280
     0
102
RTVSPost2010PropOp34
 70
     1
102
RTVSPost2010Prop35
280
     0
102
RTVSPost2010PropOp35
 70
     1
102
RTVSPost2010Prop36
280
     0
102
RTVSPost2010PropOp36
 70
     1
102
RTVSPost2010Prop37
 90
       50
102
RTVSPost2010PropOp37
 70
     1
102
RTVSPost2010Prop38
140
0.0
102
RTVSPost2010PropOp38
 70
     1
102
RTVSPost2010Prop39
140
1.0
102
RTVSPost2010PropOp39
 70
     1
102
RTVSPost2010Prop40
 90
        0
102
RTVSPost2010PropOp40
 70
     1
102
RTVSPost2010Prop41ColorIndex
 90
       18
102
RTVSPost2010Prop41ColorRGB
 90
        0
102
RTVSPost2010PropOp41
 70
     1
102
RTVSPost2010Prop42
 90
       50
102
RTVSPost2010PropOp42
 70
     1
102
RTVSPost2010Prop43
 90
        3
102
RTVSPost2010PropOp43
 70
     1
102
RTVSPost2010Prop44ColorIndex
 90
        5
102
RTVSPost2010Prop44ColorRGB
 90
      255
102
RTVSPost2010PropOp44
 70
     1
102
RTVSPost2010Prop45
280
     0
102
RTVSPost2010PropOp45
 70
     1
102
RTVSPost2010Prop46
 90
       50
102
RTVSPost2010PropOp46
 70
     1
102
RTVSPost2010Prop47
 90
       50
102
RTVSPost2010PropOp47
 70
     1
102
RTVSPost2010Prop48
 90
       50
102
RTVSPost2010PropOp48
 70
     1
102
RTVSPost2010Prop49
280
     0
102
RTVSPost2010PropOp49
 70
     1
102
RTVSPost2010Prop50
 90
       50
102
RTVSPost2010PropOp50
 70
     1
102
RTVSPost2010Prop51ColorIndex
 90
      256
102
RTVSPost2010Prop51ColorRGB
 90
-16777216
102
RTVSPost2010PropOp51
 70
     0
102
RTVSPost2010Prop52
140
1.0
102
RTVSPost2010PropOp52
 70
     0
102
RTVSPost2010Prop53
 90
        2
102
RTVSPost2010PropOp53
 70
     1
102
RTVSPost2010Prop54
  1
strokes_ogs.tif
102
RTVSPost2010PropOp54
 70
     1
102
RTVSPost2010Prop55
280
     0
102
RTVSPost2010PropOp55
 70
     1
102
RTVSPost2010Prop56
140
1.0
102
RTVSPost2010PropOp56
 70
     1
102
RTVSPost2010Prop57
140
1.0
102
RTVSPost2010PropOp57
 70
     1
102
RTVSPropertyOp0
 70
     1
102
RTVSPropertyOp1
 70
     1
102
RTVSPropertyOp2
 70
     1
102
RTVSPropertyOp3
 70
     1
102
RTVSPropertyOp4
 70
     1
102
RTVSPropertyOp5
 70
     1
102
RTVSPropertyOp6
 70
     1
102
RTVSPropertyOp7
 70
     1
102
RTVSPropertyOp8
 70
     1
102
RTVSPropertyOp9
 70
     1
102
RTVSPropertyOp10
 70
     1
102
RTVSPropertyOp11
 70
     1
102
RTVSPropertyOp12
 70
     1
102
RTVSPropertyOp13
 70
     1
102
RTVSPropertyOp14
 70
     1
102
RTVSPropertyOp15
 70
     1
102
RTVSPropertyOp16
 70
     1
102
RTVSPropertyOp17
 70
     1
102
RTVSPropertyOp18
 70
     1
102
RTVSPropertyOp19
 70
     1
102
RTVSPropertyOp20
 70
     1
102
RTVSPropertyOp21
 70
     1
102
RTVSPropertyOp22
 70
     1
102
RTVSPropertyOp23
 70
     1
102
RTVSPropertyOp24
 70
     1
102
RTVSPropertyOp25
 70
     1
102
RTVSPropertyOp26
 70
     1
102
RTVSPropertyOp27
 70
     1
102
RTVSPropertyOp28
 70
     1
102
RTVSPropertyOp29
 70
     1
102
RTVSPropertyOp30
 70
     1
102
RTVSPropertyOp31
 70
     1
102
RTVSPropertyOp32
 70
     1
102
RTVSPropertyOp33
 70
     1
102
RTVSPropertyOp34
 70
     1
102
RTVSPropertyOp35
 70
     1
102
RTVSPropertyOp36
 70
     1
102
RTVSPropertyOp37
 70
     1
102
RTVSPropertyOp38
 70
     1
102
RTVSPropertyOp39
 70
     1
102
RTVSPropertyOp40
 70
     1
102
RTVSPropertyOp41
 70
     1
102
RTVSPropertyOp42
 70
     1
102
RTVSPropertyOp43
 70
     1
102
RTVSPropertyOp44
 70
     1
102
RTVSPropertyOp45
 70
     1
102
RTVSPropertyOp46
 70
     1
102
RTVSPropertyOp47
 70
     1
102
RTVSPropertyOp48
 70
     1
102
RTVSPropertyOp49
 70
     1
102
RTVSPropertyOp50
 70
     1
102
RTVSPropertyOp51
 70
     0
102
RTVSPropertyOp52
 70
     0
102
RTVSPropertyOp53
 70
     1
102
RTVSPropertyOp54
 70
     1
102
RTVSPropertyOp55
 70
     1
102
RTVSPropertyOp56
 70
     1
102
RTVSPropertyOp57
 70
     1
102
RTVSPropertyOp58
 70
     1
102
RTVSPropertyOp59
 70
     1
102
RTVSPropertyOp60
 70
     1
102
RTVSPropertyOp61
 70
     1
102
RTVSPropertyOp62
 70
     1
  0
XRECORD
  5
44A
102
{ACAD_REACTORS
330
449
102
}
330
449
100
AcDbXrecord
280
     1
102
RTVSPost2010Prop28
280
     0
102
RTVSPost2010PropOp28
 70
     1
102
RTVSPost2010Prop29
280
     1
102
RTVSPost2010PropOp29
 70
     1
102
RTVSPost2010Prop30
280
     1
102
RTVSPost2010PropOp30
 70
     1
102
RTVSPost2010Prop31
280
     0
102
RTVSPost2010PropOp31
 70
     1
102
RTVSPost2010Prop32
280
     0
102
RTVSPost2010PropOp32
 70
     1
102
RTVSPost2010Prop33
280
     0
102
RTVSPost2010PropOp33
 70
     1
102
RTVSPost2010Prop34
280
     0
102
RTVSPost2010PropOp34
 70
     1
102
RTVSPost2010Prop35
280
     0
102
RTVSPost2010PropOp35
 70
     1
102
RTVSPost2010Prop36
280
     0
102
RTVSPost2010PropOp36
 70
     1
102
RTVSPost2010Prop37
 90
       50
102
RTVSPost2010PropOp37
 70
     1
102
RTVSPost2010Prop38
140
0.0
102
RTVSPost2010PropOp38
 70
     1
102
RTVSPost2010Prop39
140
1.0
102
RTVSPost2010PropOp39
 70
     1
102
RTVSPost2010Prop40
 90
        0
102
RTVSPost2010PropOp40
 70
     1
102
RTVSPost2010Prop41ColorIndex
 90
       18
102
RTVSPost2010Prop41ColorRGB
 90
        0
102
RTVSPost2010PropOp41
 70
     1
102
RTVSPost2010Prop42
 90
       50
102
RTVSPost2010PropOp42
 70
     1
102
RTVSPost2010Prop43
 90
        3
102
RTVSPost2010PropOp43
 70
     1
102
RTVSPost2010Prop44ColorIndex
 90
        5
102
RTVSPost2010Prop44ColorRGB
 90
      255
102
RTVSPost2010PropOp44
 70
     1
102
RTVSPost2010Prop45
280
     0
102
RTVSPost2010PropOp45
 70
     1
102
RTVSPost2010Prop46
 90
       50
102
RTVSPost2010PropOp46
 70
     1
102
RTVSPost2010Prop47
 90
       50
102
RTVSPost2010PropOp47
 70
     1
102
RTVSPost2010Prop48
 90
       50
102
RTVSPost2010PropOp48
 70
     1
102
RTVSPost2010Prop49
280
     0
102
RTVSPost2010PropOp49
 70
     1
102
RTVSPost2010Prop50
 90
       50
102
RTVSPost2010PropOp50
 70
     1
102
RTVSPost2010Prop51ColorIndex
 90
      256
102
RTVSPost2010Prop51ColorRGB
 90
-16777216
102
RTVSPost2010PropOp51
 70
     0
102
RTVSPost2010Prop52
140
1.0
102
RTVSPost2010PropOp52
 70
     0
102
RTVSPost2010Prop53
 90
        2
102
RTVSPost2010PropOp53
 70
     1
102
RTVSPost2010Prop54
  1
strokes_ogs.tif
102
RTVSPost2010PropOp54
 70
     1
102
RTVSPost2010Prop55
280
     0
102
RTVSPost2010PropOp55
 70
     1
102
RTVSPost2010Prop56
140
1.0
102
RTVSPost2010PropOp56
 70
     1
102
RTVSPost2010Prop57
140
1.0
102
RTVSPost2010PropOp57
 70
     1
102
RTVSPropertyOp0
 70
     1
102
RTVSPropertyOp1
 70
     1
102
RTVSPropertyOp2
 70
     1
102
RTVSPropertyOp3
 70
     1
102
RTVSPropertyOp4
 70
     1
102
RTVSPropertyOp5
 70
     1
102
RTVSPropertyOp6
 70
     1
102
RTVSPropertyOp7
 70
     1
102
RTVSPropertyOp8
 70
     1
102
RTVSPropertyOp9
 70
     1
102
RTVSPropertyOp10
 70
     1
102
RTVSPropertyOp11
 70
     1
102
RTVSPropertyOp12
 70
     1
102
RTVSPropertyOp13
 70
     1
102
RTVSPropertyOp14
 70
     1
102
RTVSPropertyOp15
 70
     1
102
RTVSPropertyOp16
 70
     1
102
RTVSPropertyOp17
 70
     1
102
RTVSPropertyOp18
 70
     1
102
RTVSPropertyOp19
 70
     1
102
RTVSPropertyOp20
 70
     1
102
RTVSPropertyOp21
 70
     1
102
RTVSPropertyOp22
 70
     1
102
RTVSPropertyOp23
 70
     1
102
RTVSPropertyOp24
 70
     1
102
RTVSPropertyOp25
 70
     1
102
RTVSPropertyOp26
 70
     1
102
RTVSPropertyOp27
 70
     1
102
RTVSPropertyOp28
 70
     1
102
RTVSPropertyOp29
 70
     1
102
RTVSPropertyOp30
 70
     1
102
RTVSPropertyOp31
 70
     1
102
RTVSPropertyOp32
 70
     1
102
RTVSPropertyOp33
 70
     1
102
RTVSPropertyOp34
 70
     1
102
RTVSPropertyOp35
 70
     1
102
RTVSPropertyOp36
 70
     1
102
RTVSPropertyOp37
 70
     1
102
RTVSPropertyOp38
 70
     1
102
RTVSPropertyOp39
 70
     1
102
RTVSPropertyOp40
 70
     1
102
RTVSPropertyOp41
 70
     1
102
RTVSPropertyOp42
 70
     1
102
RTVSPropertyOp43
 70
     1
102
RTVSPropertyOp44
 70
     1
102
RTVSPropertyOp45
 70
     1
102
RTVSPropertyOp46
 70
     1
102
RTVSPropertyOp47
 70
     1
102
RTVSPropertyOp48
 70
     1
102
RTVSPropertyOp49
 70
     1
102
RTVSPropertyOp50
 70
     1
102
RTVSPropertyOp51
 70
     0
102
RTVSPropertyOp52
 70
     0
102
RTVSPropertyOp53
 70
     1
102
RTVSPropertyOp54
 70
     1
102
RTVSPropertyOp55
 70
     1
102
RTVSPropertyOp56
 70
     1
102
RTVSPropertyOp57
 70
     1
102
RTVSPropertyOp58
 70
     1
102
RTVSPropertyOp59
 70
     1
102
RTVSPropertyOp60
 70
     1
102
RTVSPropertyOp61
 70
     1
102
RTVSPropertyOp62
 70
     1
  0
XRECORD
  5
464
102
{ACAD_REACTORS
330
463
102
}
330
463
100
AcDbXrecord
280
     1
102
RTVSPost2010Prop28
280
     0
102
RTVSPost2010PropOp28
 70
     1
102
RTVSPost2010Prop29
280
     1
102
RTVSPost2010PropOp29
 70
     1
102
RTVSPost2010Prop30
280
     1
102
RTVSPost2010PropOp30
 70
     1
102
RTVSPost2010Prop31
280
     0
102
RTVSPost2010PropOp31
 70
     1
102
RTVSPost2010Prop32
280
     0
102
RTVSPost2010PropOp32
 70
     1
102
RTVSPost2010Prop33
280
     0
102
RTVSPost2010PropOp33
 70
     1
102
RTVSPost2010Prop34
280
     0
102
RTVSPost2010PropOp34
 70
     1
102
RTVSPost2010Prop35
280
     0
102
RTVSPost2010PropOp35
 70
     1
102
RTVSPost2010Prop36
280
     0
102
RTVSPost2010PropOp36
 70
     1
102
RTVSPost2010Prop37
 90
       50
102
RTVSPost2010PropOp37
 70
     0
102
RTVSPost2010Prop38
140
0.0
102
RTVSPost2010PropOp38
 70
     0
102
RTVSPost2010Prop39
140
1.0
102
RTVSPost2010PropOp39
 70
     0
102
RTVSPost2010Prop40
 90
        0
102
RTVSPost2010PropOp40
 70
     0
102
RTVSPost2010Prop41ColorIndex
 90
       18
102
RTVSPost2010Prop41ColorRGB
 90
        0
102
RTVSPost2010PropOp41
 70
     0
102
RTVSPost2010Prop42
 90
       50
102
RTVSPost2010PropOp42
 70
     0
102
RTVSPost2010Prop43
 90
        3
102
RTVSPost2010PropOp43
 70
     0
102
RTVSPost2010Prop44ColorIndex
 90
        5
102
RTVSPost2010Prop44ColorRGB
 90
      255
102
RTVSPost2010PropOp44
 70
     0
102
RTVSPost2010Prop45
280
     0
102
RTVSPost2010PropOp45
 70
     1
102
RTVSPost2010Prop46
 90
       50
102
RTVSPost2010PropOp46
 70
     0
102
RTVSPost2010Prop47
 90
       50
102
RTVSPost2010PropOp47
 70
     0
102
RTVSPost2010Prop48
 90
       50
102
RTVSPost2010PropOp48
 70
     0
102
RTVSPost2010Prop49
280
     0
102
RTVSPost2010PropOp49
 70
     1
102
RTVSPost2010Prop50
 90
       50
102
RTVSPost2010PropOp50
 70
     0
102
RTVSPost2010Prop51ColorIndex
 90
      256
102
RTVSPost2010Prop51ColorRGB
 90
-16777216
102
RTVSPost2010PropOp51
 70
     0
102
RTVSPost2010Prop52
140
1.0
102
RTVSPost2010PropOp52
 70
     0
102
RTVSPost2010Prop53
 90
        2
102
RTVSPost2010PropOp53
 70
     0
102
RTVSPost2010Prop54
  1
strokes_ogs.tif
102
RTVSPost2010PropOp54
 70
     0
102
RTVSPost2010Prop55
280
     0
102
RTVSPost2010PropOp55
 70
     1
102
RTVSPost2010Prop56
140
1.0
102
RTVSPost2010PropOp56
 70
     0
102
RTVSPost2010Prop57
140
1.0
102
RTVSPost2010PropOp57
 70
     0
102
RTVSPropertyOp0
 70
     0
102
RTVSPropertyOp1
 70
     0
102
RTVSPropertyOp2
 70
     0
102
RTVSPropertyOp3
 70
     0
102
RTVSPropertyOp4
 70
     0
102
RTVSPropertyOp5
 70
     0
102
RTVSPropertyOp6
 70
     0
102
RTVSPropertyOp7
 70
     0
102
RTVSPropertyOp8
 70
     0
102
RTVSPropertyOp9
 70
     0
102
RTVSPropertyOp10
 70
     0
102
RTVSPropertyOp11
 70
     0
102
RTVSPropertyOp12
 70
     0
102
RTVSPropertyOp13
 70
     0
102
RTVSPropertyOp14
 70
     2
102
RTVSPropertyOp15
 70
     0
102
RTVSPropertyOp16
 70
     0
102
RTVSPropertyOp17
 70
     0
102
RTVSPropertyOp18
 70
     0
102
RTVSPropertyOp19
 70
     0
102
RTVSPropertyOp20
 70
     0
102
RTVSPropertyOp21
 70
     0
102
RTVSPropertyOp22
 70
     0
102
RTVSPropertyOp23
 70
     0
102
RTVSPropertyOp24
 70
     0
102
RTVSPropertyOp25
 70
     0
102
RTVSPropertyOp26
 70
     0
102
RTVSPropertyOp27
 70
     0
102
RTVSPropertyOp28
 70
     1
102
RTVSPropertyOp29
 70
     1
102
RTVSPropertyOp30
 70
     1
102
RTVSPropertyOp31
 70
     1
102
RTVSPropertyOp32
 70
     1
102
RTVSPropertyOp33
 70
     1
102
RTVSPropertyOp34
 70
     1
102
RTVSPropertyOp35
 70
     1
102
RTVSPropertyOp36
 70
     1
102
RTVSPropertyOp37
 70
     0
102
RTVSPropertyOp38
 70
     0
102
RTVSPropertyOp39
 70
     0
102
RTVSPropertyOp40
 70
     0
102
RTVSPropertyOp41
 70
     0
102
RTVSPropertyOp42
 70
     0
102
RTVSPropertyOp43
 70
     0
102
RTVSPropertyOp44
 70
     0
102
RTVSPropertyOp45
 70
     1
102
RTVSPropertyOp46
 70
     0
102
RTVSPropertyOp47
 70
     0
102
RTVSPropertyOp48
 70
     0
102
RTVSPropertyOp49
 70
     1
102
RTVSPropertyOp50
 70
     0
102
RTVSPropertyOp51
 70
     0
102
RTVSPropertyOp52
 70
     0
102
RTVSPropertyOp53
 70
     0
102
RTVSPropertyOp54
 70
     0
102
RTVSPropertyOp55
 70
     1
102
RTVSPropertyOp56
 70
     0
102
RTVSPropertyOp57
 70
     0
102
RTVSPropertyOp58
 70
     0
102
RTVSPropertyOp59
 70
     0
102
RTVSPropertyOp60
 70
     0
102
RTVSPropertyOp61
 70
     0
102
RTVSPropertyOp62
 70
     0
  0
XRECORD
  5
452
102
{ACAD_REACTORS
330
451
102
}
330
451
100
AcDbXrecord
280
     1
102
RTVSPost2010Prop28
280
     0
102
RTVSPost2010PropOp28
 70
     1
102
RTVSPost2010Prop29
280
     1
102
RTVSPost2010PropOp29
 70
     1
102
RTVSPost2010Prop30
280
     1
102
RTVSPost2010PropOp30
 70
     1
102
RTVSPost2010Prop31
280
     0
102
RTVSPost2010PropOp31
 70
     1
102
RTVSPost2010Prop32
280
     0
102
RTVSPost2010PropOp32
 70
     1
102
RTVSPost2010Prop33
280
     0
102
RTVSPost2010PropOp33
 70
     1
102
RTVSPost2010Prop34
280
     0
102
RTVSPost2010PropOp34
 70
     1
102
RTVSPost2010Prop35
280
     0
102
RTVSPost2010PropOp35
 70
     1
102
RTVSPost2010Prop36
280
     0
102
RTVSPost2010PropOp36
 70
     1
102
RTVSPost2010Prop37
 90
       50
102
RTVSPost2010PropOp37
 70
     1
102
RTVSPost2010Prop38
140
0.0
102
RTVSPost2010PropOp38
 70
     1
102
RTVSPost2010Prop39
140
1.0
102
RTVSPost2010PropOp39
 70
     1
102
RTVSPost2010Prop40
 90
        0
102
RTVSPost2010PropOp40
 70
     1
102
RTVSPost2010Prop41ColorIndex
 90
       18
102
RTVSPost2010Prop41ColorRGB
 90
        0
102
RTVSPost2010PropOp41
 70
     1
102
RTVSPost2010Prop42
 90
       50
102
RTVSPost2010PropOp42
 70
     1
102
RTVSPost2010Prop43
 90
        3
102
RTVSPost2010PropOp43
 70
     1
102
RTVSPost2010Prop44ColorIndex
 90
        5
102
RTVSPost2010Prop44ColorRGB
 90
      255
102
RTVSPost2010PropOp44
 70
     1
102
RTVSPost2010Prop45
280
     0
102
RTVSPost2010PropOp45
 70
     1
102
RTVSPost2010Prop46
 90
       50
102
RTVSPost2010PropOp46
 70
     1
102
RTVSPost2010Prop47
 90
       50
102
RTVSPost2010PropOp47
 70
     1
102
RTVSPost2010Prop48
 90
       50
102
RTVSPost2010PropOp48
 70
     1
102
RTVSPost2010Prop49
280
     0
102
RTVSPost2010PropOp49
 70
     1
102
RTVSPost2010Prop50
 90
       50
102
RTVSPost2010PropOp50
 70
     1
102
RTVSPost2010Prop51ColorIndex
 90
      256
102
RTVSPost2010Prop51ColorRGB
 90
-16777216
102
RTVSPost2010PropOp51
 70
     0
102
RTVSPost2010Prop52
140
1.0
102
RTVSPost2010PropOp52
 70
     0
102
RTVSPost2010Prop53
 90
        2
102
RTVSPost2010PropOp53
 70
     1
102
RTVSPost2010Prop54
  1
strokes_ogs.tif
102
RTVSPost2010PropOp54
 70
     1
102
RTVSPost2010Prop55
280
     0
102
RTVSPost2010PropOp55
 70
     1
102
RTVSPost2010Prop56
140
1.0
102
RTVSPost2010PropOp56
 70
     1
102
RTVSPost2010Prop57
140
1.0
102
RTVSPost2010PropOp57
 70
     1
102
RTVSPropertyOp0
 70
     1
102
RTVSPropertyOp1
 70
     1
102
RTVSPropertyOp2
 70
     1
102
RTVSPropertyOp3
 70
     1
102
RTVSPropertyOp4
 70
     1
102
RTVSPropertyOp5
 70
     1
102
RTVSPropertyOp6
 70
     1
102
RTVSPropertyOp7
 70
     1
102
RTVSPropertyOp8
 70
     1
102
RTVSPropertyOp9
 70
     1
102
RTVSPropertyOp10
 70
     1
102
RTVSPropertyOp11
 70
     1
102
RTVSPropertyOp12
 70
     1
102
RTVSPropertyOp13
 70
     1
102
RTVSPropertyOp14
 70
     1
102
RTVSPropertyOp15
 70
     1
102
RTVSPropertyOp16
 70
     1
102
RTVSPropertyOp17
 70
     1
102
RTVSPropertyOp18
 70
     1
102
RTVSPropertyOp19
 70
     1
102
RTVSPropertyOp20
 70
     1
102
RTVSPropertyOp21
 70
     1
102
RTVSPropertyOp22
 70
     1
102
RTVSPropertyOp23
 70
     1
102
RTVSPropertyOp24
 70
     1
102
RTVSPropertyOp25
 70
     1
102
RTVSPropertyOp26
 70
     1
102
RTVSPropertyOp27
 70
     1
102
RTVSPropertyOp28
 70
     1
102
RTVSPropertyOp29
 70
     1
102
RTVSPropertyOp30
 70
     1
102
RTVSPropertyOp31
 70
     1
102
RTVSPropertyOp32
 70
     1
102
RTVSPropertyOp33
 70
     1
102
RTVSPropertyOp34
 70
     1
102
RTVSPropertyOp35
 70
     1
102
RTVSPropertyOp36
 70
     1
102
RTVSPropertyOp37
 70
     1
102
RTVSPropertyOp38
 70
     1
102
RTVSPropertyOp39
 70
     1
102
RTVSPropertyOp40
 70
     1
102
RTVSPropertyOp41
 70
     1
102
RTVSPropertyOp42
 70
     1
102
RTVSPropertyOp43
 70
     1
102
RTVSPropertyOp44
 70
     1
102
RTVSPropertyOp45
 70
     1
102
RTVSPropertyOp46
 70
     1
102
RTVSPropertyOp47
 70
     1
102
RTVSPropertyOp48
 70
     1
102
RTVSPropertyOp49
 70
     1
102
RTVSPropertyOp50
 70
     1
102
RTVSPropertyOp51
 70
     0
102
RTVSPropertyOp52
 70
     0
102
RTVSPropertyOp53
 70
     1
102
RTVSPropertyOp54
 70
     1
102
RTVSPropertyOp55
 70
     1
102
RTVSPropertyOp56
 70
     1
102
RTVSPropertyOp57
 70
     1
102
RTVSPropertyOp58
 70
     1
102
RTVSPropertyOp59
 70
     1
102
RTVSPropertyOp60
 70
     1
102
RTVSPropertyOp61
 70
     1
102
RTVSPropertyOp62
 70
     1
  0
XRECORD
  5
436
102
{ACAD_REACTORS
330
435
102
}
330
435
100
AcDbXrecord
280
     1
102
RTVSPost2010Prop28
280
     0
102
RTVSPost2010PropOp28
 70
     1
102
RTVSPost2010Prop29
280
     1
102
RTVSPost2010PropOp29
 70
     1
102
RTVSPost2010Prop30
280
     1
102
RTVSPost2010PropOp30
 70
     1
102
RTVSPost2010Prop31
280
     0
102
RTVSPost2010PropOp31
 70
     1
102
RTVSPost2010Prop32
280
     0
102
RTVSPost2010PropOp32
 70
     1
102
RTVSPost2010Prop33
280
     0
102
RTVSPost2010PropOp33
 70
     1
102
RTVSPost2010Prop34
280
     0
102
RTVSPost2010PropOp34
 70
     1
102
RTVSPost2010Prop35
280
     0
102
RTVSPost2010PropOp35
 70
     1
102
RTVSPost2010Prop36
280
     0
102
RTVSPost2010PropOp36
 70
     1
102
RTVSPost2010Prop37
 90
       50
102
RTVSPost2010PropOp37
 70
     1
102
RTVSPost2010Prop38
140
0.0
102
RTVSPost2010PropOp38
 70
     1
102
RTVSPost2010Prop39
140
1.0
102
RTVSPost2010PropOp39
 70
     1
102
RTVSPost2010Prop40
 90
        0
102
RTVSPost2010PropOp40
 70
     1
102
RTVSPost2010Prop41ColorIndex
 90
       18
102
RTVSPost2010Prop41ColorRGB
 90
        0
102
RTVSPost2010PropOp41
 70
     1
102
RTVSPost2010Prop42
 90
       50
102
RTVSPost2010PropOp42
 70
     1
102
RTVSPost2010Prop43
 90
        3
102
RTVSPost2010PropOp43
 70
     1
102
RTVSPost2010Prop44ColorIndex
 90
        5
102
RTVSPost2010Prop44ColorRGB
 90
      255
102
RTVSPost2010PropOp44
 70
     1
102
RTVSPost2010Prop45
280
     0
102
RTVSPost2010PropOp45
 70
     1
102
RTVSPost2010Prop46
 90
       50
102
RTVSPost2010PropOp46
 70
     1
102
RTVSPost2010Prop47
 90
       50
102
RTVSPost2010PropOp47
 70
     1
102
RTVSPost2010Prop48
 90
       50
102
RTVSPost2010PropOp48
 70
     1
102
RTVSPost2010Prop49
280
     0
102
RTVSPost2010PropOp49
 70
     1
102
RTVSPost2010Prop50
 90
       50
102
RTVSPost2010PropOp50
 70
     1
102
RTVSPost2010Prop51ColorIndex
 90
      256
102
RTVSPost2010Prop51ColorRGB
 90
-16777216
102
RTVSPost2010PropOp51
 70
     0
102
RTVSPost2010Prop52
140
1.0
102
RTVSPost2010PropOp52
 70
     0
102
RTVSPost2010Prop53
 90
        2
102
RTVSPost2010PropOp53
 70
     1
102
RTVSPost2010Prop54
  1
strokes_ogs.tif
102
RTVSPost2010PropOp54
 70
     1
102
RTVSPost2010Prop55
280
     0
102
RTVSPost2010PropOp55
 70
     1
102
RTVSPost2010Prop56
140
1.0
102
RTVSPost2010PropOp56
 70
     1
102
RTVSPost2010Prop57
140
1.0
102
RTVSPost2010PropOp57
 70
     1
102
RTVSPropertyOp0
 70
     1
102
RTVSPropertyOp1
 70
     1
102
RTVSPropertyOp2
 70
     1
102
RTVSPropertyOp3
 70
     1
102
RTVSPropertyOp4
 70
     1
102
RTVSPropertyOp5
 70
     1
102
RTVSPropertyOp6
 70
     1
102
RTVSPropertyOp7
 70
     1
102
RTVSPropertyOp8
 70
     1
102
RTVSPropertyOp9
 70
     1
102
RTVSPropertyOp10
 70
     1
102
RTVSPropertyOp11
 70
     1
102
RTVSPropertyOp12
 70
     1
102
RTVSPropertyOp13
 70
     1
102
RTVSPropertyOp14
 70
     1
102
RTVSPropertyOp15
 70
     1
102
RTVSPropertyOp16
 70
     1
102
RTVSPropertyOp17
 70
     1
102
RTVSPropertyOp18
 70
     1
102
RTVSPropertyOp19
 70
     1
102
RTVSPropertyOp20
 70
     1
102
RTVSPropertyOp21
 70
     1
102
RTVSPropertyOp22
 70
     1
102
RTVSPropertyOp23
 70
     1
102
RTVSPropertyOp24
 70
     1
102
RTVSPropertyOp25
 70
     1
102
RTVSPropertyOp26
 70
     1
102
RTVSPropertyOp27
 70
     1
102
RTVSPropertyOp28
 70
     1
102
RTVSPropertyOp29
 70
     1
102
RTVSPropertyOp30
 70
     1
102
RTVSPropertyOp31
 70
     1
102
RTVSPropertyOp32
 70
     1
102
RTVSPropertyOp33
 70
     1
102
RTVSPropertyOp34
 70
     1
102
RTVSPropertyOp35
 70
     1
102
RTVSPropertyOp36
 70
     1
102
RTVSPropertyOp37
 70
     1
102
RTVSPropertyOp38
 70
     1
102
RTVSPropertyOp39
 70
     1
102
RTVSPropertyOp40
 70
     1
102
RTVSPropertyOp41
 70
     1
102
RTVSPropertyOp42
 70
     1
102
RTVSPropertyOp43
 70
     1
102
RTVSPropertyOp44
 70
     1
102
RTVSPropertyOp45
 70
     1
102
RTVSPropertyOp46
 70
     1
102
RTVSPropertyOp47
 70
     1
102
RTVSPropertyOp48
 70
     1
102
RTVSPropertyOp49
 70
     1
102
RTVSPropertyOp50
 70
     1
102
RTVSPropertyOp51
 70
     0
102
RTVSPropertyOp52
 70
     0
102
RTVSPropertyOp53
 70
     1
102
RTVSPropertyOp54
 70
     1
102
RTVSPropertyOp55
 70
     1
102
RTVSPropertyOp56
 70
     1
102
RTVSPropertyOp57
 70
     1
102
RTVSPropertyOp58
 70
     1
102
RTVSPropertyOp59
 70
     1
102
RTVSPropertyOp60
 70
     1
102
RTVSPropertyOp61
 70
     1
102
RTVSPropertyOp62
 70
     1
  0
XRECORD
  5
438
102
{ACAD_REACTORS
330
437
102
}
330
437
100
AcDbXrecord
280
     1
102
RTVSPost2010Prop28
280
     0
102
RTVSPost2010PropOp28
 70
     1
102
RTVSPost2010Prop29
280
     1
102
RTVSPost2010PropOp29
 70
     1
102
RTVSPost2010Prop30
280
     1
102
RTVSPost2010PropOp30
 70
     1
102
RTVSPost2010Prop31
280
     0
102
RTVSPost2010PropOp31
 70
     1
102
RTVSPost2010Prop32
280
     0
102
RTVSPost2010PropOp32
 70
     1
102
RTVSPost2010Prop33
280
     0
102
RTVSPost2010PropOp33
 70
     1
102
RTVSPost2010Prop34
280
     0
102
RTVSPost2010PropOp34
 70
     1
102
RTVSPost2010Prop35
280
     0
102
RTVSPost2010PropOp35
 70
     1
102
RTVSPost2010Prop36
280
     0
102
RTVSPost2010PropOp36
 70
     1
102
RTVSPost2010Prop37
 90
       50
102
RTVSPost2010PropOp37
 70
     1
102
RTVSPost2010Prop38
140
0.0
102
RTVSPost2010PropOp38
 70
     1
102
RTVSPost2010Prop39
140
1.0
102
RTVSPost2010PropOp39
 70
     1
102
RTVSPost2010Prop40
 90
        0
102
RTVSPost2010PropOp40
 70
     1
102
RTVSPost2010Prop41ColorIndex
 90
       18
102
RTVSPost2010Prop41ColorRGB
 90
        0
102
RTVSPost2010PropOp41
 70
     1
102
RTVSPost2010Prop42
 90
       50
102
RTVSPost2010PropOp42
 70
     1
102
RTVSPost2010Prop43
 90
        3
102
RTVSPost2010PropOp43
 70
     1
102
RTVSPost2010Prop44ColorIndex
 90
        5
102
RTVSPost2010Prop44ColorRGB
 90
      255
102
RTVSPost2010PropOp44
 70
     1
102
RTVSPost2010Prop45
280
     0
102
RTVSPost2010PropOp45
 70
     1
102
RTVSPost2010Prop46
 90
       50
102
RTVSPost2010PropOp46
 70
     1
102
RTVSPost2010Prop47
 90
       50
102
RTVSPost2010PropOp47
 70
     1
102
RTVSPost2010Prop48
 90
       50
102
RTVSPost2010PropOp48
 70
     1
102
RTVSPost2010Prop49
280
     0
102
RTVSPost2010PropOp49
 70
     1
102
RTVSPost2010Prop50
 90
       50
102
RTVSPost2010PropOp50
 70
     1
102
RTVSPost2010Prop51ColorIndex
 90
      256
102
RTVSPost2010Prop51ColorRGB
 90
-16777216
102
RTVSPost2010PropOp51
 70
     0
102
RTVSPost2010Prop52
140
1.0
102
RTVSPost2010PropOp52
 70
     0
102
RTVSPost2010Prop53
 90
        2
102
RTVSPost2010PropOp53
 70
     1
102
RTVSPost2010Prop54
  1
strokes_ogs.tif
102
RTVSPost2010PropOp54
 70
     1
102
RTVSPost2010Prop55
280
     0
102
RTVSPost2010PropOp55
 70
     1
102
RTVSPost2010Prop56
140
1.0
102
RTVSPost2010PropOp56
 70
     1
102
RTVSPost2010Prop57
140
1.0
102
RTVSPost2010PropOp57
 70
     1
102
RTVSPropertyOp0
 70
     1
102
RTVSPropertyOp1
 70
     1
102
RTVSPropertyOp2
 70
     1
102
RTVSPropertyOp3
 70
     1
102
RTVSPropertyOp4
 70
     1
102
RTVSPropertyOp5
 70
     1
102
RTVSPropertyOp6
 70
     1
102
RTVSPropertyOp7
 70
     1
102
RTVSPropertyOp8
 70
     1
102
RTVSPropertyOp9
 70
     1
102
RTVSPropertyOp10
 70
     1
102
RTVSPropertyOp11
 70
     1
102
RTVSPropertyOp12
 70
     1
102
RTVSPropertyOp13
 70
     1
102
RTVSPropertyOp14
 70
     1
102
RTVSPropertyOp15
 70
     1
102
RTVSPropertyOp16
 70
     1
102
RTVSPropertyOp17
 70
     1
102
RTVSPropertyOp18
 70
     1
102
RTVSPropertyOp19
 70
     1
102
RTVSPropertyOp20
 70
     1
102
RTVSPropertyOp21
 70
     1
102
RTVSPropertyOp22
 70
     1
102
RTVSPropertyOp23
 70
     1
102
RTVSPropertyOp24
 70
     1
102
RTVSPropertyOp25
 70
     1
102
RTVSPropertyOp26
 70
     1
102
RTVSPropertyOp27
 70
     1
102
RTVSPropertyOp28
 70
     1
102
RTVSPropertyOp29
 70
     1
102
RTVSPropertyOp30
 70
     1
102
RTVSPropertyOp31
 70
     1
102
RTVSPropertyOp32
 70
     1
102
RTVSPropertyOp33
 70
     1
102
RTVSPropertyOp34
 70
     1
102
RTVSPropertyOp35
 70
     1
102
RTVSPropertyOp36
 70
     1
102
RTVSPropertyOp37
 70
     1
102
RTVSPropertyOp38
 70
     1
102
RTVSPropertyOp39
 70
     1
102
RTVSPropertyOp40
 70
     1
102
RTVSPropertyOp41
 70
     1
102
RTVSPropertyOp42
 70
     1
102
RTVSPropertyOp43
 70
     1
102
RTVSPropertyOp44
 70
     1
102
RTVSPropertyOp45
 70
     1
102
RTVSPropertyOp46
 70
     1
102
RTVSPropertyOp47
 70
     1
102
RTVSPropertyOp48
 70
     1
102
RTVSPropertyOp49
 70
     1
102
RTVSPropertyOp50
 70
     1
102
RTVSPropertyOp51
 70
     0
102
RTVSPropertyOp52
 70
     0
102
RTVSPropertyOp53
 70
     1
102
RTVSPropertyOp54
 70
     1
102
RTVSPropertyOp55
 70
     1
102
RTVSPropertyOp56
 70
     1
102
RTVSPropertyOp57
 70
     1
102
RTVSPropertyOp58
 70
     1
102
RTVSPropertyOp59
 70
     1
102
RTVSPropertyOp60
 70
     1
102
RTVSPropertyOp61
 70
     1
102
RTVSPropertyOp62
 70
     1
  0
XRECORD
  5
43A
102
{ACAD_REACTORS
330
439
102
}
330
439
100
AcDbXrecord
280
     1
102
RTVSPost2010Prop28
280
     0
102
RTVSPost2010PropOp28
 70
     1
102
RTVSPost2010Prop29
280
     1
102
RTVSPost2010PropOp29
 70
     1
102
RTVSPost2010Prop30
280
     1
102
RTVSPost2010PropOp30
 70
     1
102
RTVSPost2010Prop31
280
     0
102
RTVSPost2010PropOp31
 70
     1
102
RTVSPost2010Prop32
280
     0
102
RTVSPost2010PropOp32
 70
     1
102
RTVSPost2010Prop33
280
     0
102
RTVSPost2010PropOp33
 70
     1
102
RTVSPost2010Prop34
280
     0
102
RTVSPost2010PropOp34
 70
     1
102
RTVSPost2010Prop35
280
     0
102
RTVSPost2010PropOp35
 70
     1
102
RTVSPost2010Prop36
280
     0
102
RTVSPost2010PropOp36
 70
     1
102
RTVSPost2010Prop37
 90
       50
102
RTVSPost2010PropOp37
 70
     1
102
RTVSPost2010Prop38
140
0.0
102
RTVSPost2010PropOp38
 70
     1
102
RTVSPost2010Prop39
140
1.0
102
RTVSPost2010PropOp39
 70
     1
102
RTVSPost2010Prop40
 90
        0
102
RTVSPost2010PropOp40
 70
     1
102
RTVSPost2010Prop41ColorIndex
 90
       18
102
RTVSPost2010Prop41ColorRGB
 90
        0
102
RTVSPost2010PropOp41
 70
     1
102
RTVSPost2010Prop42
 90
       50
102
RTVSPost2010PropOp42
 70
     1
102
RTVSPost2010Prop43
 90
        3
102
RTVSPost2010PropOp43
 70
     1
102
RTVSPost2010Prop44ColorIndex
 90
        5
102
RTVSPost2010Prop44ColorRGB
 90
      255
102
RTVSPost2010PropOp44
 70
     1
102
RTVSPost2010Prop45
280
     0
102
RTVSPost2010PropOp45
 70
     1
102
RTVSPost2010Prop46
 90
       50
102
RTVSPost2010PropOp46
 70
     1
102
RTVSPost2010Prop47
 90
       50
102
RTVSPost2010PropOp47
 70
     1
102
RTVSPost2010Prop48
 90
       50
102
RTVSPost2010PropOp48
 70
     1
102
RTVSPost2010Prop49
280
     0
102
RTVSPost2010PropOp49
 70
     1
102
RTVSPost2010Prop50
 90
       50
102
RTVSPost2010PropOp50
 70
     1
102
RTVSPost2010Prop51ColorIndex
 90
      256
102
RTVSPost2010Prop51ColorRGB
 90
-16777216
102
RTVSPost2010PropOp51
 70
     0
102
RTVSPost2010Prop52
140
1.0
102
RTVSPost2010PropOp52
 70
     0
102
RTVSPost2010Prop53
 90
        2
102
RTVSPost2010PropOp53
 70
     1
102
RTVSPost2010Prop54
  1
strokes_ogs.tif
102
RTVSPost2010PropOp54
 70
     1
102
RTVSPost2010Prop55
280
     0
102
RTVSPost2010PropOp55
 70
     1
102
RTVSPost2010Prop56
140
1.0
102
RTVSPost2010PropOp56
 70
     1
102
RTVSPost2010Prop57
140
1.0
102
RTVSPost2010PropOp57
 70
     1
102
RTVSPropertyOp0
 70
     1
102
RTVSPropertyOp1
 70
     1
102
RTVSPropertyOp2
 70
     1
102
RTVSPropertyOp3
 70
     1
102
RTVSPropertyOp4
 70
     1
102
RTVSPropertyOp5
 70
     1
102
RTVSPropertyOp6
 70
     1
102
RTVSPropertyOp7
 70
     1
102
RTVSPropertyOp8
 70
     1
102
RTVSPropertyOp9
 70
     1
102
RTVSPropertyOp10
 70
     1
102
RTVSPropertyOp11
 70
     1
102
RTVSPropertyOp12
 70
     1
102
RTVSPropertyOp13
 70
     1
102
RTVSPropertyOp14
 70
     1
102
RTVSPropertyOp15
 70
     1
102
RTVSPropertyOp16
 70
     1
102
RTVSPropertyOp17
 70
     1
102
RTVSPropertyOp18
 70
     1
102
RTVSPropertyOp19
 70
     1
102
RTVSPropertyOp20
 70
     1
102
RTVSPropertyOp21
 70
     1
102
RTVSPropertyOp22
 70
     1
102
RTVSPropertyOp23
 70
     1
102
RTVSPropertyOp24
 70
     1
102
RTVSPropertyOp25
 70
     1
102
RTVSPropertyOp26
 70
     1
102
RTVSPropertyOp27
 70
     1
102
RTVSPropertyOp28
 70
     1
102
RTVSPropertyOp29
 70
     1
102
RTVSPropertyOp30
 70
     1
102
RTVSPropertyOp31
 70
     1
102
RTVSPropertyOp32
 70
     1
102
RTVSPropertyOp33
 70
     1
102
RTVSPropertyOp34
 70
     1
102
RTVSPropertyOp35
 70
     1
102
RTVSPropertyOp36
 70
     1
102
RTVSPropertyOp37
 70
     1
102
RTVSPropertyOp38
 70
     1
102
RTVSPropertyOp39
 70
     1
102
RTVSPropertyOp40
 70
     1
102
RTVSPropertyOp41
 70
     1
102
RTVSPropertyOp42
 70
     1
102
RTVSPropertyOp43
 70
     1
102
RTVSPropertyOp44
 70
     1
102
RTVSPropertyOp45
 70
     1
102
RTVSPropertyOp46
 70
     1
102
RTVSPropertyOp47
 70
     1
102
RTVSPropertyOp48
 70
     1
102
RTVSPropertyOp49
 70
     1
102
RTVSPropertyOp50
 70
     1
102
RTVSPropertyOp51
 70
     0
102
RTVSPropertyOp52
 70
     0
102
RTVSPropertyOp53
 70
     1
102
RTVSPropertyOp54
 70
     1
102
RTVSPropertyOp55
 70
     1
102
RTVSPropertyOp56
 70
     1
102
RTVSPropertyOp57
 70
     1
102
RTVSPropertyOp58
 70
     1
102
RTVSPropertyOp59
 70
     1
102
RTVSPropertyOp60
 70
     1
102
RTVSPropertyOp61
 70
     1
102
RTVSPropertyOp62
 70
     1
  0
XRECORD
  5
43C
102
{ACAD_REACTORS
330
43B
102
}
330
43B
100
AcDbXrecord
280
     1
102
RTVSPost2010Prop28
280
     0
102
RTVSPost2010PropOp28
 70
     1
102
RTVSPost2010Prop29
280
     1
102
RTVSPost2010PropOp29
 70
     1
102
RTVSPost2010Prop30
280
     1
102
RTVSPost2010PropOp30
 70
     1
102
RTVSPost2010Prop31
280
     0
102
RTVSPost2010PropOp31
 70
     1
102
RTVSPost2010Prop32
280
     0
102
RTVSPost2010PropOp32
 70
     1
102
RTVSPost2010Prop33
280
     0
102
RTVSPost2010PropOp33
 70
     1
102
RTVSPost2010Prop34
280
     0
102
RTVSPost2010PropOp34
 70
     1
102
RTVSPost2010Prop35
280
     0
102
RTVSPost2010PropOp35
 70
     1
102
RTVSPost2010Prop36
280
     0
102
RTVSPost2010PropOp36
 70
     1
102
RTVSPost2010Prop37
 90
       50
102
RTVSPost2010PropOp37
 70
     1
102
RTVSPost2010Prop38
140
0.0
102
RTVSPost2010PropOp38
 70
     1
102
RTVSPost2010Prop39
140
1.0
102
RTVSPost2010PropOp39
 70
     1
102
RTVSPost2010Prop40
 90
        0
102
RTVSPost2010PropOp40
 70
     1
102
RTVSPost2010Prop41ColorIndex
 90
       18
102
RTVSPost2010Prop41ColorRGB
 90
        0
102
RTVSPost2010PropOp41
 70
     1
102
RTVSPost2010Prop42
 90
       50
102
RTVSPost2010PropOp42
 70
     1
102
RTVSPost2010Prop43
 90
        3
102
RTVSPost2010PropOp43
 70
     1
102
RTVSPost2010Prop44ColorIndex
 90
        5
102
RTVSPost2010Prop44ColorRGB
 90
      255
102
RTVSPost2010PropOp44
 70
     1
102
RTVSPost2010Prop45
280
     0
102
RTVSPost2010PropOp45
 70
     1
102
RTVSPost2010Prop46
 90
       50
102
RTVSPost2010PropOp46
 70
     1
102
RTVSPost2010Prop47
 90
       50
102
RTVSPost2010PropOp47
 70
     1
102
RTVSPost2010Prop48
 90
       50
102
RTVSPost2010PropOp48
 70
     1
102
RTVSPost2010Prop49
280
     0
102
RTVSPost2010PropOp49
 70
     1
102
RTVSPost2010Prop50
 90
       50
102
RTVSPost2010PropOp50
 70
     1
102
RTVSPost2010Prop51ColorIndex
 90
      256
102
RTVSPost2010Prop51ColorRGB
 90
-16777216
102
RTVSPost2010PropOp51
 70
     0
102
RTVSPost2010Prop52
140
1.0
102
RTVSPost2010PropOp52
 70
     0
102
RTVSPost2010Prop53
 90
        2
102
RTVSPost2010PropOp53
 70
     1
102
RTVSPost2010Prop54
  1
strokes_ogs.tif
102
RTVSPost2010PropOp54
 70
     1
102
RTVSPost2010Prop55
280
     0
102
RTVSPost2010PropOp55
 70
     1
102
RTVSPost2010Prop56
140
1.0
102
RTVSPost2010PropOp56
 70
     1
102
RTVSPost2010Prop57
140
1.0
102
RTVSPost2010PropOp57
 70
     1
102
RTVSPropertyOp0
 70
     1
102
RTVSPropertyOp1
 70
     1
102
RTVSPropertyOp2
 70
     1
102
RTVSPropertyOp3
 70
     1
102
RTVSPropertyOp4
 70
     1
102
RTVSPropertyOp5
 70
     1
102
RTVSPropertyOp6
 70
     1
102
RTVSPropertyOp7
 70
     1
102
RTVSPropertyOp8
 70
     1
102
RTVSPropertyOp9
 70
     1
102
RTVSPropertyOp10
 70
     1
102
RTVSPropertyOp11
 70
     1
102
RTVSPropertyOp12
 70
     1
102
RTVSPropertyOp13
 70
     1
102
RTVSPropertyOp14
 70
     1
102
RTVSPropertyOp15
 70
     1
102
RTVSPropertyOp16
 70
     1
102
RTVSPropertyOp17
 70
     1
102
RTVSPropertyOp18
 70
     1
102
RTVSPropertyOp19
 70
     1
102
RTVSPropertyOp20
 70
     1
102
RTVSPropertyOp21
 70
     1
102
RTVSPropertyOp22
 70
     1
102
RTVSPropertyOp23
 70
     1
102
RTVSPropertyOp24
 70
     1
102
RTVSPropertyOp25
 70
     1
102
RTVSPropertyOp26
 70
     1
102
RTVSPropertyOp27
 70
     1
102
RTVSPropertyOp28
 70
     1
102
RTVSPropertyOp29
 70
     1
102
RTVSPropertyOp30
 70
     1
102
RTVSPropertyOp31
 70
     1
102
RTVSPropertyOp32
 70
     1
102
RTVSPropertyOp33
 70
     1
102
RTVSPropertyOp34
 70
     1
102
RTVSPropertyOp35
 70
     1
102
RTVSPropertyOp36
 70
     1
102
RTVSPropertyOp37
 70
     1
102
RTVSPropertyOp38
 70
     1
102
RTVSPropertyOp39
 70
     1
102
RTVSPropertyOp40
 70
     1
102
RTVSPropertyOp41
 70
     1
102
RTVSPropertyOp42
 70
     1
102
RTVSPropertyOp43
 70
     1
102
RTVSPropertyOp44
 70
     1
102
RTVSPropertyOp45
 70
     1
102
RTVSPropertyOp46
 70
     1
102
RTVSPropertyOp47
 70
     1
102
RTVSPropertyOp48
 70
     1
102
RTVSPropertyOp49
 70
     1
102
RTVSPropertyOp50
 70
     1
102
RTVSPropertyOp51
 70
     0
102
RTVSPropertyOp52
 70
     0
102
RTVSPropertyOp53
 70
     1
102
RTVSPropertyOp54
 70
     1
102
RTVSPropertyOp55
 70
     1
102
RTVSPropertyOp56
 70
     1
102
RTVSPropertyOp57
 70
     1
102
RTVSPropertyOp58
 70
     1
102
RTVSPropertyOp59
 70
     1
102
RTVSPropertyOp60
 70
     1
102
RTVSPropertyOp61
 70
     1
102
RTVSPropertyOp62
 70
     1
  0
XRECORD
  5
444
102
{ACAD_REACTORS
330
443
102
}
330
443
100
AcDbXrecord
280
     1
102
RTVSPost2010Prop28
280
     0
102
RTVSPost2010PropOp28
 70
     1
102
RTVSPost2010Prop29
280
     1
102
RTVSPost2010PropOp29
 70
     1
102
RTVSPost2010Prop30
280
     1
102
RTVSPost2010PropOp30
 70
     1
102
RTVSPost2010Prop31
280
     0
102
RTVSPost2010PropOp31
 70
     1
102
RTVSPost2010Prop32
280
     0
102
RTVSPost2010PropOp32
 70
     1
102
RTVSPost2010Prop33
280
     0
102
RTVSPost2010PropOp33
 70
     1
102
RTVSPost2010Prop34
280
     0
102
RTVSPost2010PropOp34
 70
     1
102
RTVSPost2010Prop35
280
     0
102
RTVSPost2010PropOp35
 70
     1
102
RTVSPost2010Prop36
280
     0
102
RTVSPost2010PropOp36
 70
     1
102
RTVSPost2010Prop37
 90
       50
102
RTVSPost2010PropOp37
 70
     1
102
RTVSPost2010Prop38
140
0.0
102
RTVSPost2010PropOp38
 70
     1
102
RTVSPost2010Prop39
140
1.0
102
RTVSPost2010PropOp39
 70
     1
102
RTVSPost2010Prop40
 90
        0
102
RTVSPost2010PropOp40
 70
     1
102
RTVSPost2010Prop41ColorIndex
 90
       18
102
RTVSPost2010Prop41ColorRGB
 90
        0
102
RTVSPost2010PropOp41
 70
     1
102
RTVSPost2010Prop42
 90
       50
102
RTVSPost2010PropOp42
 70
     1
102
RTVSPost2010Prop43
 90
        3
102
RTVSPost2010PropOp43
 70
     1
102
RTVSPost2010Prop44ColorIndex
 90
        5
102
RTVSPost2010Prop44ColorRGB
 90
      255
102
RTVSPost2010PropOp44
 70
     1
102
RTVSPost2010Prop45
280
     0
102
RTVSPost2010PropOp45
 70
     1
102
RTVSPost2010Prop46
 90
       50
102
RTVSPost2010PropOp46
 70
     1
102
RTVSPost2010Prop47
 90
       50
102
RTVSPost2010PropOp47
 70
     1
102
RTVSPost2010Prop48
 90
       50
102
RTVSPost2010PropOp48
 70
     1
102
RTVSPost2010Prop49
280
     0
102
RTVSPost2010PropOp49
 70
     1
102
RTVSPost2010Prop50
 90
       50
102
RTVSPost2010PropOp50
 70
     1
102
RTVSPost2010Prop51ColorIndex
 90
      256
102
RTVSPost2010Prop51ColorRGB
 90
-16777216
102
RTVSPost2010PropOp51
 70
     0
102
RTVSPost2010Prop52
140
1.0
102
RTVSPost2010PropOp52
 70
     0
102
RTVSPost2010Prop53
 90
        2
102
RTVSPost2010PropOp53
 70
     1
102
RTVSPost2010Prop54
  1
strokes_ogs.tif
102
RTVSPost2010PropOp54
 70
     1
102
RTVSPost2010Prop55
280
     0
102
RTVSPost2010PropOp55
 70
     1
102
RTVSPost2010Prop56
140
1.0
102
RTVSPost2010PropOp56
 70
     1
102
RTVSPost2010Prop57
140
1.0
102
RTVSPost2010PropOp57
 70
     1
102
RTVSPropertyOp0
 70
     1
102
RTVSPropertyOp1
 70
     1
102
RTVSPropertyOp2
 70
     1
102
RTVSPropertyOp3
 70
     1
102
RTVSPropertyOp4
 70
     1
102
RTVSPropertyOp5
 70
     1
102
RTVSPropertyOp6
 70
     1
102
RTVSPropertyOp7
 70
     1
102
RTVSPropertyOp8
 70
     1
102
RTVSPropertyOp9
 70
     1
102
RTVSPropertyOp10
 70
     1
102
RTVSPropertyOp11
 70
     1
102
RTVSPropertyOp12
 70
     1
102
RTVSPropertyOp13
 70
     1
102
RTVSPropertyOp14
 70
     1
102
RTVSPropertyOp15
 70
     1
102
RTVSPropertyOp16
 70
     1
102
RTVSPropertyOp17
 70
     1
102
RTVSPropertyOp18
 70
     1
102
RTVSPropertyOp19
 70
     1
102
RTVSPropertyOp20
 70
     1
102
RTVSPropertyOp21
 70
     1
102
RTVSPropertyOp22
 70
     1
102
RTVSPropertyOp23
 70
     1
102
RTVSPropertyOp24
 70
     1
102
RTVSPropertyOp25
 70
     1
102
RTVSPropertyOp26
 70
     1
102
RTVSPropertyOp27
 70
     1
102
RTVSPropertyOp28
 70
     1
102
RTVSPropertyOp29
 70
     1
102
RTVSPropertyOp30
 70
     1
102
RTVSPropertyOp31
 70
     1
102
RTVSPropertyOp32
 70
     1
102
RTVSPropertyOp33
 70
     1
102
RTVSPropertyOp34
 70
     1
102
RTVSPropertyOp35
 70
     1
102
RTVSPropertyOp36
 70
     1
102
RTVSPropertyOp37
 70
     1
102
RTVSPropertyOp38
 70
     1
102
RTVSPropertyOp39
 70
     1
102
RTVSPropertyOp40
 70
     1
102
RTVSPropertyOp41
 70
     1
102
RTVSPropertyOp42
 70
     1
102
RTVSPropertyOp43
 70
     1
102
RTVSPropertyOp44
 70
     1
102
RTVSPropertyOp45
 70
     1
102
RTVSPropertyOp46
 70
     1
102
RTVSPropertyOp47
 70
     1
102
RTVSPropertyOp48
 70
     1
102
RTVSPropertyOp49
 70
     1
102
RTVSPropertyOp50
 70
     1
102
RTVSPropertyOp51
 70
     0
102
RTVSPropertyOp52
 70
     0
102
RTVSPropertyOp53
 70
     1
102
RTVSPropertyOp54
 70
     1
102
RTVSPropertyOp55
 70
     1
102
RTVSPropertyOp56
 70
     1
102
RTVSPropertyOp57
 70
     1
102
RTVSPropertyOp58
 70
     1
102
RTVSPropertyOp59
 70
     1
102
RTVSPropertyOp60
 70
     1
102
RTVSPropertyOp61
 70
     1
102
RTVSPropertyOp62
 70
     1
  0
XRECORD
  5
460
102
{ACAD_REACTORS
330
45F
102
}
330
45F
100
AcDbXrecord
280
     1
102
RTVSPost2010Prop28
280
     0
102
RTVSPost2010PropOp28
 70
     1
102
RTVSPost2010Prop29
280
     1
102
RTVSPost2010PropOp29
 70
     1
102
RTVSPost2010Prop30
280
     1
102
RTVSPost2010PropOp30
 70
     1
102
RTVSPost2010Prop31
280
     0
102
RTVSPost2010PropOp31
 70
     1
102
RTVSPost2010Prop32
280
     0
102
RTVSPost2010PropOp32
 70
     1
102
RTVSPost2010Prop33
280
     0
102
RTVSPost2010PropOp33
 70
     1
102
RTVSPost2010Prop34
280
     0
102
RTVSPost2010PropOp34
 70
     1
102
RTVSPost2010Prop35
280
     0
102
RTVSPost2010PropOp35
 70
     1
102
RTVSPost2010Prop36
280
     0
102
RTVSPost2010PropOp36
 70
     1
102
RTVSPost2010Prop37
 90
       50
102
RTVSPost2010PropOp37
 70
     0
102
RTVSPost2010Prop38
140
0.0
102
RTVSPost2010PropOp38
 70
     0
102
RTVSPost2010Prop39
140
1.0
102
RTVSPost2010PropOp39
 70
     0
102
RTVSPost2010Prop40
 90
        0
102
RTVSPost2010PropOp40
 70
     0
102
RTVSPost2010Prop41ColorIndex
 90
       18
102
RTVSPost2010Prop41ColorRGB
 90
        0
102
RTVSPost2010PropOp41
 70
     0
102
RTVSPost2010Prop42
 90
       50
102
RTVSPost2010PropOp42
 70
     0
102
RTVSPost2010Prop43
 90
        3
102
RTVSPost2010PropOp43
 70
     0
102
RTVSPost2010Prop44ColorIndex
 90
        5
102
RTVSPost2010Prop44ColorRGB
 90
      255
102
RTVSPost2010PropOp44
 70
     0
102
RTVSPost2010Prop45
280
     0
102
RTVSPost2010PropOp45
 70
     1
102
RTVSPost2010Prop46
 90
       50
102
RTVSPost2010PropOp46
 70
     0
102
RTVSPost2010Prop47
 90
       50
102
RTVSPost2010PropOp47
 70
     0
102
RTVSPost2010Prop48
 90
       50
102
RTVSPost2010PropOp48
 70
     0
102
RTVSPost2010Prop49
280
     0
102
RTVSPost2010PropOp49
 70
     1
102
RTVSPost2010Prop50
 90
       50
102
RTVSPost2010PropOp50
 70
     0
102
RTVSPost2010Prop51ColorIndex
 90
      256
102
RTVSPost2010Prop51ColorRGB
 90
-16777216
102
RTVSPost2010PropOp51
 70
     0
102
RTVSPost2010Prop52
140
1.0
102
RTVSPost2010PropOp52
 70
     0
102
RTVSPost2010Prop53
 90
        2
102
RTVSPost2010PropOp53
 70
     0
102
RTVSPost2010Prop54
  1
strokes_ogs.tif
102
RTVSPost2010PropOp54
 70
     0
102
RTVSPost2010Prop55
280
     0
102
RTVSPost2010PropOp55
 70
     1
102
RTVSPost2010Prop56
140
1.0
102
RTVSPost2010PropOp56
 70
     0
102
RTVSPost2010Prop57
140
1.0
102
RTVSPost2010PropOp57
 70
     0
102
RTVSPropertyOp0
 70
     0
102
RTVSPropertyOp1
 70
     0
102
RTVSPropertyOp2
 70
     0
102
RTVSPropertyOp3
 70
     0
102
RTVSPropertyOp4
 70
     0
102
RTVSPropertyOp5
 70
     0
102
RTVSPropertyOp6
 70
     0
102
RTVSPropertyOp7
 70
     0
102
RTVSPropertyOp8
 70
     0
102
RTVSPropertyOp9
 70
     0
102
RTVSPropertyOp10
 70
     0
102
RTVSPropertyOp11
 70
     0
102
RTVSPropertyOp12
 70
     0
102
RTVSPropertyOp13
 70
     0
102
RTVSPropertyOp14
 70
     2
102
RTVSPropertyOp15
 70
     0
102
RTVSPropertyOp16
 70
     0
102
RTVSPropertyOp17
 70
     0
102
RTVSPropertyOp18
 70
     0
102
RTVSPropertyOp19
 70
     0
102
RTVSPropertyOp20
 70
     0
102
RTVSPropertyOp21
 70
     0
102
RTVSPropertyOp22
 70
     0
102
RTVSPropertyOp23
 70
     0
102
RTVSPropertyOp24
 70
     0
102
RTVSPropertyOp25
 70
     0
102
RTVSPropertyOp26
 70
     0
102
RTVSPropertyOp27
 70
     0
102
RTVSPropertyOp28
 70
     1
102
RTVSPropertyOp29
 70
     1
102
RTVSPropertyOp30
 70
     1
102
RTVSPropertyOp31
 70
     1
102
RTVSPropertyOp32
 70
     1
102
RTVSPropertyOp33
 70
     1
102
RTVSPropertyOp34
 70
     1
102
RTVSPropertyOp35
 70
     1
102
RTVSPropertyOp36
 70
     1
102
RTVSPropertyOp37
 70
     0
102
RTVSPropertyOp38
 70
     0
102
RTVSPropertyOp39
 70
     0
102
RTVSPropertyOp40
 70
     0
102
RTVSPropertyOp41
 70
     0
102
RTVSPropertyOp42
 70
     0
102
RTVSPropertyOp43
 70
     0
102
RTVSPropertyOp44
 70
     0
102
RTVSPropertyOp45
 70
     1
102
RTVSPropertyOp46
 70
     0
102
RTVSPropertyOp47
 70
     0
102
RTVSPropertyOp48
 70
     0
102
RTVSPropertyOp49
 70
     1
102
RTVSPropertyOp50
 70
     0
102
RTVSPropertyOp51
 70
     0
102
RTVSPropertyOp52
 70
     0
102
RTVSPropertyOp53
 70
     0
102
RTVSPropertyOp54
 70
     0
102
RTVSPropertyOp55
 70
     1
102
RTVSPropertyOp56
 70
     0
102
RTVSPropertyOp57
 70
     0
102
RTVSPropertyOp58
 70
     0
102
RTVSPropertyOp59
 70
     0
102
RTVSPropertyOp60
 70
     0
102
RTVSPropertyOp61
 70
     0
102
RTVSPropertyOp62
 70
     0
  0
XRECORD
  5
450
102
{ACAD_REACTORS
330
44F
102
}
330
44F
100
AcDbXrecord
280
     1
102
RTVSPost2010Prop28
280
     0
102
RTVSPost2010PropOp28
 70
     1
102
RTVSPost2010Prop29
280
     1
102
RTVSPost2010PropOp29
 70
     1
102
RTVSPost2010Prop30
280
     1
102
RTVSPost2010PropOp30
 70
     1
102
RTVSPost2010Prop31
280
     0
102
RTVSPost2010PropOp31
 70
     1
102
RTVSPost2010Prop32
280
     0
102
RTVSPost2010PropOp32
 70
     1
102
RTVSPost2010Prop33
280
     0
102
RTVSPost2010PropOp33
 70
     1
102
RTVSPost2010Prop34
280
     0
102
RTVSPost2010PropOp34
 70
     1
102
RTVSPost2010Prop35
280
     0
102
RTVSPost2010PropOp35
 70
     1
102
RTVSPost2010Prop36
280
     0
102
RTVSPost2010PropOp36
 70
     1
102
RTVSPost2010Prop37
 90
       50
102
RTVSPost2010PropOp37
 70
     1
102
RTVSPost2010Prop38
140
0.0
102
RTVSPost2010PropOp38
 70
     1
102
RTVSPost2010Prop39
140
1.0
102
RTVSPost2010PropOp39
 70
     1
102
RTVSPost2010Prop40
 90
        0
102
RTVSPost2010PropOp40
 70
     1
102
RTVSPost2010Prop41ColorIndex
 90
       18
102
RTVSPost2010Prop41ColorRGB
 90
        0
102
RTVSPost2010PropOp41
 70
     1
102
RTVSPost2010Prop42
 90
       50
102
RTVSPost2010PropOp42
 70
     1
102
RTVSPost2010Prop43
 90
        3
102
RTVSPost2010PropOp43
 70
     1
102
RTVSPost2010Prop44ColorIndex
 90
        5
102
RTVSPost2010Prop44ColorRGB
 90
      255
102
RTVSPost2010PropOp44
 70
     1
102
RTVSPost2010Prop45
280
     0
102
RTVSPost2010PropOp45
 70
     1
102
RTVSPost2010Prop46
 90
       50
102
RTVSPost2010PropOp46
 70
     1
102
RTVSPost2010Prop47
 90
       50
102
RTVSPost2010PropOp47
 70
     1
102
RTVSPost2010Prop48
 90
       50
102
RTVSPost2010PropOp48
 70
     1
102
RTVSPost2010Prop49
280
     0
102
RTVSPost2010PropOp49
 70
     1
102
RTVSPost2010Prop50
 90
       50
102
RTVSPost2010PropOp50
 70
     1
102
RTVSPost2010Prop51ColorIndex
 90
      256
102
RTVSPost2010Prop51ColorRGB
 90
-16777216
102
RTVSPost2010PropOp51
 70
     0
102
RTVSPost2010Prop52
140
1.0
102
RTVSPost2010PropOp52
 70
     0
102
RTVSPost2010Prop53
 90
        2
102
RTVSPost2010PropOp53
 70
     1
102
RTVSPost2010Prop54
  1
strokes_ogs.tif
102
RTVSPost2010PropOp54
 70
     1
102
RTVSPost2010Prop55
280
     0
102
RTVSPost2010PropOp55
 70
     1
102
RTVSPost2010Prop56
140
1.0
102
RTVSPost2010PropOp56
 70
     1
102
RTVSPost2010Prop57
140
1.0
102
RTVSPost2010PropOp57
 70
     1
102
RTVSPropertyOp0
 70
     1
102
RTVSPropertyOp1
 70
     1
102
RTVSPropertyOp2
 70
     1
102
RTVSPropertyOp3
 70
     1
102
RTVSPropertyOp4
 70
     1
102
RTVSPropertyOp5
 70
     1
102
RTVSPropertyOp6
 70
     1
102
RTVSPropertyOp7
 70
     1
102
RTVSPropertyOp8
 70
     1
102
RTVSPropertyOp9
 70
     1
102
RTVSPropertyOp10
 70
     1
102
RTVSPropertyOp11
 70
     1
102
RTVSPropertyOp12
 70
     1
102
RTVSPropertyOp13
 70
     1
102
RTVSPropertyOp14
 70
     1
102
RTVSPropertyOp15
 70
     1
102
RTVSPropertyOp16
 70
     1
102
RTVSPropertyOp17
 70
     1
102
RTVSPropertyOp18
 70
     1
102
RTVSPropertyOp19
 70
     1
102
RTVSPropertyOp20
 70
     1
102
RTVSPropertyOp21
 70
     1
102
RTVSPropertyOp22
 70
     1
102
RTVSPropertyOp23
 70
     1
102
RTVSPropertyOp24
 70
     1
102
RTVSPropertyOp25
 70
     1
102
RTVSPropertyOp26
 70
     1
102
RTVSPropertyOp27
 70
     1
102
RTVSPropertyOp28
 70
     1
102
RTVSPropertyOp29
 70
     1
102
RTVSPropertyOp30
 70
     1
102
RTVSPropertyOp31
 70
     1
102
RTVSPropertyOp32
 70
     1
102
RTVSPropertyOp33
 70
     1
102
RTVSPropertyOp34
 70
     1
102
RTVSPropertyOp35
 70
     1
102
RTVSPropertyOp36
 70
     1
102
RTVSPropertyOp37
 70
     1
102
RTVSPropertyOp38
 70
     1
102
RTVSPropertyOp39
 70
     1
102
RTVSPropertyOp40
 70
     1
102
RTVSPropertyOp41
 70
     1
102
RTVSPropertyOp42
 70
     1
102
RTVSPropertyOp43
 70
     1
102
RTVSPropertyOp44
 70
     1
102
RTVSPropertyOp45
 70
     1
102
RTVSPropertyOp46
 70
     1
102
RTVSPropertyOp47
 70
     1
102
RTVSPropertyOp48
 70
     1
102
RTVSPropertyOp49
 70
     1
102
RTVSPropertyOp50
 70
     1
102
RTVSPropertyOp51
 70
     0
102
RTVSPropertyOp52
 70
     0
102
RTVSPropertyOp53
 70
     1
102
RTVSPropertyOp54
 70
     1
102
RTVSPropertyOp55
 70
     1
102
RTVSPropertyOp56
 70
     1
102
RTVSPropertyOp57
 70
     1
102
RTVSPropertyOp58
 70
     1
102
RTVSPropertyOp59
 70
     1
102
RTVSPropertyOp60
 70
     1
102
RTVSPropertyOp61
 70
     1
102
RTVSPropertyOp62
 70
     1
  0
XRECORD
  5
462
102
{ACAD_REACTORS
330
461
102
}
330
461
100
AcDbXrecord
280
     1
102
RTVSPost2010Prop28
280
     0
102
RTVSPost2010PropOp28
 70
     1
102
RTVSPost2010Prop29
280
     1
102
RTVSPost2010PropOp29
 70
     1
102
RTVSPost2010Prop30
280
     1
102
RTVSPost2010PropOp30
 70
     1
102
RTVSPost2010Prop31
280
     0
102
RTVSPost2010PropOp31
 70
     1
102
RTVSPost2010Prop32
280
     0
102
RTVSPost2010PropOp32
 70
     1
102
RTVSPost2010Prop33
280
     0
102
RTVSPost2010PropOp33
 70
     1
102
RTVSPost2010Prop34
280
     0
102
RTVSPost2010PropOp34
 70
     1
102
RTVSPost2010Prop35
280
     0
102
RTVSPost2010PropOp35
 70
     1
102
RTVSPost2010Prop36
280
     0
102
RTVSPost2010PropOp36
 70
     1
102
RTVSPost2010Prop37
 90
       50
102
RTVSPost2010PropOp37
 70
     0
102
RTVSPost2010Prop38
140
0.0
102
RTVSPost2010PropOp38
 70
     0
102
RTVSPost2010Prop39
140
1.0
102
RTVSPost2010PropOp39
 70
     0
102
RTVSPost2010Prop40
 90
        0
102
RTVSPost2010PropOp40
 70
     0
102
RTVSPost2010Prop41ColorIndex
 90
       18
102
RTVSPost2010Prop41ColorRGB
 90
        0
102
RTVSPost2010PropOp41
 70
     0
102
RTVSPost2010Prop42
 90
       50
102
RTVSPost2010PropOp42
 70
     0
102
RTVSPost2010Prop43
 90
        3
102
RTVSPost2010PropOp43
 70
     0
102
RTVSPost2010Prop44ColorIndex
 90
        5
102
RTVSPost2010Prop44ColorRGB
 90
      255
102
RTVSPost2010PropOp44
 70
     0
102
RTVSPost2010Prop45
280
     0
102
RTVSPost2010PropOp45
 70
     1
102
RTVSPost2010Prop46
 90
       50
102
RTVSPost2010PropOp46
 70
     0
102
RTVSPost2010Prop47
 90
       50
102
RTVSPost2010PropOp47
 70
     0
102
RTVSPost2010Prop48
 90
       50
102
RTVSPost2010PropOp48
 70
     0
102
RTVSPost2010Prop49
280
     0
102
RTVSPost2010PropOp49
 70
     1
102
RTVSPost2010Prop50
 90
       50
102
RTVSPost2010PropOp50
 70
     0
102
RTVSPost2010Prop51ColorIndex
 90
      256
102
RTVSPost2010Prop51ColorRGB
 90
-16777216
102
RTVSPost2010PropOp51
 70
     0
102
RTVSPost2010Prop52
140
1.0
102
RTVSPost2010PropOp52
 70
     0
102
RTVSPost2010Prop53
 90
        2
102
RTVSPost2010PropOp53
 70
     0
102
RTVSPost2010Prop54
  1
strokes_ogs.tif
102
RTVSPost2010PropOp54
 70
     0
102
RTVSPost2010Prop55
280
     0
102
RTVSPost2010PropOp55
 70
     1
102
RTVSPost2010Prop56
140
1.0
102
RTVSPost2010PropOp56
 70
     0
102
RTVSPost2010Prop57
140
1.0
102
RTVSPost2010PropOp57
 70
     0
102
RTVSPropertyOp0
 70
     0
102
RTVSPropertyOp1
 70
     0
102
RTVSPropertyOp2
 70
     0
102
RTVSPropertyOp3
 70
     0
102
RTVSPropertyOp4
 70
     0
102
RTVSPropertyOp5
 70
     0
102
RTVSPropertyOp6
 70
     0
102
RTVSPropertyOp7
 70
     0
102
RTVSPropertyOp8
 70
     0
102
RTVSPropertyOp9
 70
     0
102
RTVSPropertyOp10
 70
     0
102
RTVSPropertyOp11
 70
     0
102
RTVSPropertyOp12
 70
     0
102
RTVSPropertyOp13
 70
     0
102
RTVSPropertyOp14
 70
     2
102
RTVSPropertyOp15
 70
     0
102
RTVSPropertyOp16
 70
     0
102
RTVSPropertyOp17
 70
     0
102
RTVSPropertyOp18
 70
     0
102
RTVSPropertyOp19
 70
     0
102
RTVSPropertyOp20
 70
     0
102
RTVSPropertyOp21
 70
     0
102
RTVSPropertyOp22
 70
     0
102
RTVSPropertyOp23
 70
     0
102
RTVSPropertyOp24
 70
     0
102
RTVSPropertyOp25
 70
     0
102
RTVSPropertyOp26
 70
     0
102
RTVSPropertyOp27
 70
     0
102
RTVSPropertyOp28
 70
     1
102
RTVSPropertyOp29
 70
     1
102
RTVSPropertyOp30
 70
     1
102
RTVSPropertyOp31
 70
     1
102
RTVSPropertyOp32
 70
     1
102
RTVSPropertyOp33
 70
     1
102
RTVSPropertyOp34
 70
     1
102
RTVSPropertyOp35
 70
     1
102
RTVSPropertyOp36
 70
     1
102
RTVSPropertyOp37
 70
     0
102
RTVSPropertyOp38
 70
     0
102
RTVSPropertyOp39
 70
     0
102
RTVSPropertyOp40
 70
     0
102
RTVSPropertyOp41
 70
     0
102
RTVSPropertyOp42
 70
     0
102
RTVSPropertyOp43
 70
     0
102
RTVSPropertyOp44
 70
     0
102
RTVSPropertyOp45
 70
     1
102
RTVSPropertyOp46
 70
     0
102
RTVSPropertyOp47
 70
     0
102
RTVSPropertyOp48
 70
     0
102
RTVSPropertyOp49
 70
     1
102
RTVSPropertyOp50
 70
     0
102
RTVSPropertyOp51
 70
     0
102
RTVSPropertyOp52
 70
     0
102
RTVSPropertyOp53
 70
     0
102
RTVSPropertyOp54
 70
     0
102
RTVSPropertyOp55
 70
     1
102
RTVSPropertyOp56
 70
     0
102
RTVSPropertyOp57
 70
     0
102
RTVSPropertyOp58
 70
     0
102
RTVSPropertyOp59
 70
     0
102
RTVSPropertyOp60
 70
     0
102
RTVSPropertyOp61
 70
     0
102
RTVSPropertyOp62
 70
     0
  0
XRECORD
  5
448
102
{ACAD_REACTORS
330
447
102
}
330
447
100
AcDbXrecord
280
     1
102
RTVSPost2010Prop28
280
     0
102
RTVSPost2010PropOp28
 70
     1
102
RTVSPost2010Prop29
280
     1
102
RTVSPost2010PropOp29
 70
     1
102
RTVSPost2010Prop30
280
     1
102
RTVSPost2010PropOp30
 70
     1
102
RTVSPost2010Prop31
280
     0
102
RTVSPost2010PropOp31
 70
     1
102
RTVSPost2010Prop32
280
     0
102
RTVSPost2010PropOp32
 70
     1
102
RTVSPost2010Prop33
280
     0
102
RTVSPost2010PropOp33
 70
     1
102
RTVSPost2010Prop34
280
     0
102
RTVSPost2010PropOp34
 70
     1
102
RTVSPost2010Prop35
280
     0
102
RTVSPost2010PropOp35
 70
     1
102
RTVSPost2010Prop36
280
     0
102
RTVSPost2010PropOp36
 70
     1
102
RTVSPost2010Prop37
 90
       50
102
RTVSPost2010PropOp37
 70
     1
102
RTVSPost2010Prop38
140
0.0
102
RTVSPost2010PropOp38
 70
     1
102
RTVSPost2010Prop39
140
1.0
102
RTVSPost2010PropOp39
 70
     1
102
RTVSPost2010Prop40
 90
        0
102
RTVSPost2010PropOp40
 70
     1
102
RTVSPost2010Prop41ColorIndex
 90
       18
102
RTVSPost2010Prop41ColorRGB
 90
        0
102
RTVSPost2010PropOp41
 70
     1
102
RTVSPost2010Prop42
 90
       50
102
RTVSPost2010PropOp42
 70
     1
102
RTVSPost2010Prop43
 90
        3
102
RTVSPost2010PropOp43
 70
     1
102
RTVSPost2010Prop44ColorIndex
 90
        5
102
RTVSPost2010Prop44ColorRGB
 90
      255
102
RTVSPost2010PropOp44
 70
     1
102
RTVSPost2010Prop45
280
     0
102
RTVSPost2010PropOp45
 70
     1
102
RTVSPost2010Prop46
 90
       50
102
RTVSPost2010PropOp46
 70
     1
102
RTVSPost2010Prop47
 90
       50
102
RTVSPost2010PropOp47
 70
     1
102
RTVSPost2010Prop48
 90
       50
102
RTVSPost2010PropOp48
 70
     1
102
RTVSPost2010Prop49
280
     0
102
RTVSPost2010PropOp49
 70
     1
102
RTVSPost2010Prop50
 90
       50
102
RTVSPost2010PropOp50
 70
     1
102
RTVSPost2010Prop51ColorIndex
 90
      256
102
RTVSPost2010Prop51ColorRGB
 90
-16777216
102
RTVSPost2010PropOp51
 70
     0
102
RTVSPost2010Prop52
140
1.0
102
RTVSPost2010PropOp52
 70
     0
102
RTVSPost2010Prop53
 90
        2
102
RTVSPost2010PropOp53
 70
     1
102
RTVSPost2010Prop54
  1
strokes_ogs.tif
102
RTVSPost2010PropOp54
 70
     1
102
RTVSPost2010Prop55
280
     0
102
RTVSPost2010PropOp55
 70
     1
102
RTVSPost2010Prop56
140
1.0
102
RTVSPost2010PropOp56
 70
     1
102
RTVSPost2010Prop57
140
1.0
102
RTVSPost2010PropOp57
 70
     1
102
RTVSPropertyOp0
 70
     1
102
RTVSPropertyOp1
 70
     1
102
RTVSPropertyOp2
 70
     1
102
RTVSPropertyOp3
 70
     1
102
RTVSPropertyOp4
 70
     1
102
RTVSPropertyOp5
 70
     1
102
RTVSPropertyOp6
 70
     1
102
RTVSPropertyOp7
 70
     1
102
RTVSPropertyOp8
 70
     1
102
RTVSPropertyOp9
 70
     1
102
RTVSPropertyOp10
 70
     1
102
RTVSPropertyOp11
 70
     1
102
RTVSPropertyOp12
 70
     1
102
RTVSPropertyOp13
 70
     1
102
RTVSPropertyOp14
 70
     1
102
RTVSPropertyOp15
 70
     1
102
RTVSPropertyOp16
 70
     1
102
RTVSPropertyOp17
 70
     1
102
RTVSPropertyOp18
 70
     1
102
RTVSPropertyOp19
 70
     1
102
RTVSPropertyOp20
 70
     1
102
RTVSPropertyOp21
 70
     1
102
RTVSPropertyOp22
 70
     1
102
RTVSPropertyOp23
 70
     1
102
RTVSPropertyOp24
 70
     1
102
RTVSPropertyOp25
 70
     1
102
RTVSPropertyOp26
 70
     1
102
RTVSPropertyOp27
 70
     1
102
RTVSPropertyOp28
 70
     1
102
RTVSPropertyOp29
 70
     1
102
RTVSPropertyOp30
 70
     1
102
RTVSPropertyOp31
 70
     1
102
RTVSPropertyOp32
 70
     1
102
RTVSPropertyOp33
 70
     1
102
RTVSPropertyOp34
 70
     1
102
RTVSPropertyOp35
 70
     1
102
RTVSPropertyOp36
 70
     1
102
RTVSPropertyOp37
 70
     1
102
RTVSPropertyOp38
 70
     1
102
RTVSPropertyOp39
 70
     1
102
RTVSPropertyOp40
 70
     1
102
RTVSPropertyOp41
 70
     1
102
RTVSPropertyOp42
 70
     1
102
RTVSPropertyOp43
 70
     1
102
RTVSPropertyOp44
 70
     1
102
RTVSPropertyOp45
 70
     1
102
RTVSPropertyOp46
 70
     1
102
RTVSPropertyOp47
 70
     1
102
RTVSPropertyOp48
 70
     1
102
RTVSPropertyOp49
 70
     1
102
RTVSPropertyOp50
 70
     1
102
RTVSPropertyOp51
 70
     0
102
RTVSPropertyOp52
 70
     0
102
RTVSPropertyOp53
 70
     1
102
RTVSPropertyOp54
 70
     1
102
RTVSPropertyOp55
 70
     1
102
RTVSPropertyOp56
 70
     1
102
RTVSPropertyOp57
 70
     1
102
RTVSPropertyOp58
 70
     1
102
RTVSPropertyOp59
 70
     1
102
RTVSPropertyOp60
 70
     1
102
RTVSPropertyOp61
 70
     1
102
RTVSPropertyOp62
 70
     1
  0
XRECORD
  5
45E
102
{ACAD_REACTORS
330
45D
102
}
330
45D
100
AcDbXrecord
280
     1
102
RTVSPost2010Prop28
280
     0
102
RTVSPost2010PropOp28
 70
     1
102
RTVSPost2010Prop29
280
     1
102
RTVSPost2010PropOp29
 70
     1
102
RTVSPost2010Prop30
280
     1
102
RTVSPost2010PropOp30
 70
     1
102
RTVSPost2010Prop31
280
     0
102
RTVSPost2010PropOp31
 70
     1
102
RTVSPost2010Prop32
280
     0
102
RTVSPost2010PropOp32
 70
     1
102
RTVSPost2010Prop33
280
     0
102
RTVSPost2010PropOp33
 70
     1
102
RTVSPost2010Prop34
280
     0
102
RTVSPost2010PropOp34
 70
     1
102
RTVSPost2010Prop35
280
     0
102
RTVSPost2010PropOp35
 70
     1
102
RTVSPost2010Prop36
280
     0
102
RTVSPost2010PropOp36
 70
     1
102
RTVSPost2010Prop37
 90
       50
102
RTVSPost2010PropOp37
 70
     1
102
RTVSPost2010Prop38
140
0.0
102
RTVSPost2010PropOp38
 70
     1
102
RTVSPost2010Prop39
140
1.0
102
RTVSPost2010PropOp39
 70
     1
102
RTVSPost2010Prop40
 90
        0
102
RTVSPost2010PropOp40
 70
     1
102
RTVSPost2010Prop41ColorIndex
 90
       18
102
RTVSPost2010Prop41ColorRGB
 90
        0
102
RTVSPost2010PropOp41
 70
     1
102
RTVSPost2010Prop42
 90
       50
102
RTVSPost2010PropOp42
 70
     1
102
RTVSPost2010Prop43
 90
        3
102
RTVSPost2010PropOp43
 70
     1
102
RTVSPost2010Prop44ColorIndex
 90
        5
102
RTVSPost2010Prop44ColorRGB
 90
      255
102
RTVSPost2010PropOp44
 70
     1
102
RTVSPost2010Prop45
280
     0
102
RTVSPost2010PropOp45
 70
     1
102
RTVSPost2010Prop46
 90
       50
102
RTVSPost2010PropOp46
 70
     1
102
RTVSPost2010Prop47
 90
       50
102
RTVSPost2010PropOp47
 70
     1
102
RTVSPost2010Prop48
 90
       50
102
RTVSPost2010PropOp48
 70
     1
102
RTVSPost2010Prop49
280
     0
102
RTVSPost2010PropOp49
 70
     1
102
RTVSPost2010Prop50
 90
       50
102
RTVSPost2010PropOp50
 70
     1
102
RTVSPost2010Prop51ColorIndex
 90
      256
102
RTVSPost2010Prop51ColorRGB
 90
-16777216
102
RTVSPost2010PropOp51
 70
     0
102
RTVSPost2010Prop52
140
1.0
102
RTVSPost2010PropOp52
 70
     0
102
RTVSPost2010Prop53
 90
        2
102
RTVSPost2010PropOp53
 70
     1
102
RTVSPost2010Prop54
  1
strokes_ogs.tif
102
RTVSPost2010PropOp54
 70
     1
102
RTVSPost2010Prop55
280
     0
102
RTVSPost2010PropOp55
 70
     1
102
RTVSPost2010Prop56
140
1.0
102
RTVSPost2010PropOp56
 70
     1
102
RTVSPost2010Prop57
140
1.0
102
RTVSPost2010PropOp57
 70
     1
102
RTVSPropertyOp0
 70
     1
102
RTVSPropertyOp1
 70
     1
102
RTVSPropertyOp2
 70
     1
102
RTVSPropertyOp3
 70
     1
102
RTVSPropertyOp4
 70
     1
102
RTVSPropertyOp5
 70
     1
102
RTVSPropertyOp6
 70
     1
102
RTVSPropertyOp7
 70
     1
102
RTVSPropertyOp8
 70
     1
102
RTVSPropertyOp9
 70
     1
102
RTVSPropertyOp10
 70
     1
102
RTVSPropertyOp11
 70
     1
102
RTVSPropertyOp12
 70
     1
102
RTVSPropertyOp13
 70
     1
102
RTVSPropertyOp14
 70
     1
102
RTVSPropertyOp15
 70
     1
102
RTVSPropertyOp16
 70
     1
102
RTVSPropertyOp17
 70
     1
102
RTVSPropertyOp18
 70
     1
102
RTVSPropertyOp19
 70
     1
102
RTVSPropertyOp20
 70
     1
102
RTVSPropertyOp21
 70
     1
102
RTVSPropertyOp22
 70
     1
102
RTVSPropertyOp23
 70
     1
102
RTVSPropertyOp24
 70
     1
102
RTVSPropertyOp25
 70
     1
102
RTVSPropertyOp26
 70
     1
102
RTVSPropertyOp27
 70
     1
102
RTVSPropertyOp28
 70
     1
102
RTVSPropertyOp29
 70
     1
102
RTVSPropertyOp30
 70
     1
102
RTVSPropertyOp31
 70
     1
102
RTVSPropertyOp32
 70
     1
102
RTVSPropertyOp33
 70
     1
102
RTVSPropertyOp34
 70
     1
102
RTVSPropertyOp35
 70
     1
102
RTVSPropertyOp36
 70
     1
102
RTVSPropertyOp37
 70
     1
102
RTVSPropertyOp38
 70
     1
102
RTVSPropertyOp39
 70
     1
102
RTVSPropertyOp40
 70
     1
102
RTVSPropertyOp41
 70
     1
102
RTVSPropertyOp42
 70
     1
102
RTVSPropertyOp43
 70
     1
102
RTVSPropertyOp44
 70
     1
102
RTVSPropertyOp45
 70
     1
102
RTVSPropertyOp46
 70
     1
102
RTVSPropertyOp47
 70
     1
102
RTVSPropertyOp48
 70
     1
102
RTVSPropertyOp49
 70
     1
102
RTVSPropertyOp50
 70
     1
102
RTVSPropertyOp51
 70
     0
102
RTVSPropertyOp52
 70
     0
102
RTVSPropertyOp53
 70
     1
102
RTVSPropertyOp54
 70
     1
102
RTVSPropertyOp55
 70
     1
102
RTVSPropertyOp56
 70
     1
102
RTVSPropertyOp57
 70
     1
102
RTVSPropertyOp58
 70
     1
102
RTVSPropertyOp59
 70
     1
102
RTVSPropertyOp60
 70
     1
102
RTVSPropertyOp61
 70
     1
102
RTVSPropertyOp62
 70
     1
  0
XRECORD
  5
45C
102
{ACAD_REACTORS
330
45B
102
}
330
45B
100
AcDbXrecord
280
     1
102
RTVSPost2010Prop28
280
     0
102
RTVSPost2010PropOp28
 70
     1
102
RTVSPost2010Prop29
280
     1
102
RTVSPost2010PropOp29
 70
     1
102
RTVSPost2010Prop30
280
     1
102
RTVSPost2010PropOp30
 70
     1
102
RTVSPost2010Prop31
280
     0
102
RTVSPost2010PropOp31
 70
     1
102
RTVSPost2010Prop32
280
     0
102
RTVSPost2010PropOp32
 70
     1
102
RTVSPost2010Prop33
280
     0
102
RTVSPost2010PropOp33
 70
     1
102
RTVSPost2010Prop34
280
     0
102
RTVSPost2010PropOp34
 70
     1
102
RTVSPost2010Prop35
280
     0
102
RTVSPost2010PropOp35
 70
     1
102
RTVSPost2010Prop36
280
     0
102
RTVSPost2010PropOp36
 70
     1
102
RTVSPost2010Prop37
 90
       50
102
RTVSPost2010PropOp37
 70
     1
102
RTVSPost2010Prop38
140
0.0
102
RTVSPost2010PropOp38
 70
     1
102
RTVSPost2010Prop39
140
1.0
102
RTVSPost2010PropOp39
 70
     1
102
RTVSPost2010Prop40
 90
        0
102
RTVSPost2010PropOp40
 70
     1
102
RTVSPost2010Prop41ColorIndex
 90
       18
102
RTVSPost2010Prop41ColorRGB
 90
        0
102
RTVSPost2010PropOp41
 70
     1
102
RTVSPost2010Prop42
 90
       50
102
RTVSPost2010PropOp42
 70
     1
102
RTVSPost2010Prop43
 90
        3
102
RTVSPost2010PropOp43
 70
     1
102
RTVSPost2010Prop44ColorIndex
 90
        5
102
RTVSPost2010Prop44ColorRGB
 90
      255
102
RTVSPost2010PropOp44
 70
     1
102
RTVSPost2010Prop45
280
     0
102
RTVSPost2010PropOp45
 70
     1
102
RTVSPost2010Prop46
 90
       50
102
RTVSPost2010PropOp46
 70
     1
102
RTVSPost2010Prop47
 90
       50
102
RTVSPost2010PropOp47
 70
     1
102
RTVSPost2010Prop48
 90
       50
102
RTVSPost2010PropOp48
 70
     1
102
RTVSPost2010Prop49
280
     0
102
RTVSPost2010PropOp49
 70
     1
102
RTVSPost2010Prop50
 90
       50
102
RTVSPost2010PropOp50
 70
     1
102
RTVSPost2010Prop51ColorIndex
 90
      256
102
RTVSPost2010Prop51ColorRGB
 90
-16777216
102
RTVSPost2010PropOp51
 70
     0
102
RTVSPost2010Prop52
140
1.0
102
RTVSPost2010PropOp52
 70
     0
102
RTVSPost2010Prop53
 90
        2
102
RTVSPost2010PropOp53
 70
     1
102
RTVSPost2010Prop54
  1
strokes_ogs.tif
102
RTVSPost2010PropOp54
 70
     1
102
RTVSPost2010Prop55
280
     0
102
RTVSPost2010PropOp55
 70
     1
102
RTVSPost2010Prop56
140
1.0
102
RTVSPost2010PropOp56
 70
     1
102
RTVSPost2010Prop57
140
1.0
102
RTVSPost2010PropOp57
 70
     1
102
RTVSPropertyOp0
 70
     1
102
RTVSPropertyOp1
 70
     1
102
RTVSPropertyOp2
 70
     1
102
RTVSPropertyOp3
 70
     1
102
RTVSPropertyOp4
 70
     1
102
RTVSPropertyOp5
 70
     1
102
RTVSPropertyOp6
 70
     1
102
RTVSPropertyOp7
 70
     1
102
RTVSPropertyOp8
 70
     1
102
RTVSPropertyOp9
 70
     1
102
RTVSPropertyOp10
 70
     1
102
RTVSPropertyOp11
 70
     1
102
RTVSPropertyOp12
 70
     1
102
RTVSPropertyOp13
 70
     1
102
RTVSPropertyOp14
 70
     1
102
RTVSPropertyOp15
 70
     1
102
RTVSPropertyOp16
 70
     1
102
RTVSPropertyOp17
 70
     1
102
RTVSPropertyOp18
 70
     1
102
RTVSPropertyOp19
 70
     1
102
RTVSPropertyOp20
 70
     1
102
RTVSPropertyOp21
 70
     1
102
RTVSPropertyOp22
 70
     1
102
RTVSPropertyOp23
 70
     1
102
RTVSPropertyOp24
 70
     1
102
RTVSPropertyOp25
 70
     1
102
RTVSPropertyOp26
 70
     1
102
RTVSPropertyOp27
 70
     1
102
RTVSPropertyOp28
 70
     1
102
RTVSPropertyOp29
 70
     1
102
RTVSPropertyOp30
 70
     1
102
RTVSPropertyOp31
 70
     1
102
RTVSPropertyOp32
 70
     1
102
RTVSPropertyOp33
 70
     1
102
RTVSPropertyOp34
 70
     1
102
RTVSPropertyOp35
 70
     1
102
RTVSPropertyOp36
 70
     1
102
RTVSPropertyOp37
 70
     1
102
RTVSPropertyOp38
 70
     1
102
RTVSPropertyOp39
 70
     1
102
RTVSPropertyOp40
 70
     1
102
RTVSPropertyOp41
 70
     1
102
RTVSPropertyOp42
 70
     1
102
RTVSPropertyOp43
 70
     1
102
RTVSPropertyOp44
 70
     1
102
RTVSPropertyOp45
 70
     1
102
RTVSPropertyOp46
 70
     1
102
RTVSPropertyOp47
 70
     1
102
RTVSPropertyOp48
 70
     1
102
RTVSPropertyOp49
 70
     1
102
RTVSPropertyOp50
 70
     1
102
RTVSPropertyOp51
 70
     0
102
RTVSPropertyOp52
 70
     0
102
RTVSPropertyOp53
 70
     1
102
RTVSPropertyOp54
 70
     1
102
RTVSPropertyOp55
 70
     1
102
RTVSPropertyOp56
 70
     1
102
RTVSPropertyOp57
 70
     1
102
RTVSPropertyOp58
 70
     1
102
RTVSPropertyOp59
 70
     1
102
RTVSPropertyOp60
 70
     1
102
RTVSPropertyOp61
 70
     1
102
RTVSPropertyOp62
 70
     1
  0
XRECORD
  5
456
102
{ACAD_REACTORS
330
455
102
}
330
455
100
AcDbXrecord
280
     1
102
RTVSPost2010Prop28
280
     0
102
RTVSPost2010PropOp28
 70
     1
102
RTVSPost2010Prop29
280
     1
102
RTVSPost2010PropOp29
 70
     1
102
RTVSPost2010Prop30
280
     1
102
RTVSPost2010PropOp30
 70
     1
102
RTVSPost2010Prop31
280
     0
102
RTVSPost2010PropOp31
 70
     1
102
RTVSPost2010Prop32
280
     0
102
RTVSPost2010PropOp32
 70
     1
102
RTVSPost2010Prop33
280
     0
102
RTVSPost2010PropOp33
 70
     1
102
RTVSPost2010Prop34
280
     0
102
RTVSPost2010PropOp34
 70
     1
102
RTVSPost2010Prop35
280
     0
102
RTVSPost2010PropOp35
 70
     1
102
RTVSPost2010Prop36
280
     0
102
RTVSPost2010PropOp36
 70
     1
102
RTVSPost2010Prop37
 90
       50
102
RTVSPost2010PropOp37
 70
     1
102
RTVSPost2010Prop38
140
0.0
102
RTVSPost2010PropOp38
 70
     1
102
RTVSPost2010Prop39
140
1.0
102
RTVSPost2010PropOp39
 70
     1
102
RTVSPost2010Prop40
 90
        0
102
RTVSPost2010PropOp40
 70
     1
102
RTVSPost2010Prop41ColorIndex
 90
       18
102
RTVSPost2010Prop41ColorRGB
 90
        0
102
RTVSPost2010PropOp41
 70
     1
102
RTVSPost2010Prop42
 90
       50
102
RTVSPost2010PropOp42
 70
     1
102
RTVSPost2010Prop43
 90
        3
102
RTVSPost2010PropOp43
 70
     1
102
RTVSPost2010Prop44ColorIndex
 90
        5
102
RTVSPost2010Prop44ColorRGB
 90
      255
102
RTVSPost2010PropOp44
 70
     1
102
RTVSPost2010Prop45
280
     0
102
RTVSPost2010PropOp45
 70
     1
102
RTVSPost2010Prop46
 90
       50
102
RTVSPost2010PropOp46
 70
     1
102
RTVSPost2010Prop47
 90
       50
102
RTVSPost2010PropOp47
 70
     1
102
RTVSPost2010Prop48
 90
       50
102
RTVSPost2010PropOp48
 70
     1
102
RTVSPost2010Prop49
280
     0
102
RTVSPost2010PropOp49
 70
     1
102
RTVSPost2010Prop50
 90
       50
102
RTVSPost2010PropOp50
 70
     1
102
RTVSPost2010Prop51ColorIndex
 90
      256
102
RTVSPost2010Prop51ColorRGB
 90
-16777216
102
RTVSPost2010PropOp51
 70
     0
102
RTVSPost2010Prop52
140
1.0
102
RTVSPost2010PropOp52
 70
     0
102
RTVSPost2010Prop53
 90
        2
102
RTVSPost2010PropOp53
 70
     1
102
RTVSPost2010Prop54
  1
strokes_ogs.tif
102
RTVSPost2010PropOp54
 70
     1
102
RTVSPost2010Prop55
280
     0
102
RTVSPost2010PropOp55
 70
     1
102
RTVSPost2010Prop56
140
1.0
102
RTVSPost2010PropOp56
 70
     1
102
RTVSPost2010Prop57
140
1.0
102
RTVSPost2010PropOp57
 70
     1
102
RTVSPropertyOp0
 70
     1
102
RTVSPropertyOp1
 70
     1
102
RTVSPropertyOp2
 70
     1
102
RTVSPropertyOp3
 70
     1
102
RTVSPropertyOp4
 70
     1
102
RTVSPropertyOp5
 70
     1
102
RTVSPropertyOp6
 70
     1
102
RTVSPropertyOp7
 70
     1
102
RTVSPropertyOp8
 70
     1
102
RTVSPropertyOp9
 70
     1
102
RTVSPropertyOp10
 70
     1
102
RTVSPropertyOp11
 70
     1
102
RTVSPropertyOp12
 70
     1
102
RTVSPropertyOp13
 70
     1
102
RTVSPropertyOp14
 70
     1
102
RTVSPropertyOp15
 70
     1
102
RTVSPropertyOp16
 70
     1
102
RTVSPropertyOp17
 70
     1
102
RTVSPropertyOp18
 70
     1
102
RTVSPropertyOp19
 70
     1
102
RTVSPropertyOp20
 70
     1
102
RTVSPropertyOp21
 70
     1
102
RTVSPropertyOp22
 70
     1
102
RTVSPropertyOp23
 70
     1
102
RTVSPropertyOp24
 70
     1
102
RTVSPropertyOp25
 70
     1
102
RTVSPropertyOp26
 70
     1
102
RTVSPropertyOp27
 70
     1
102
RTVSPropertyOp28
 70
     1
102
RTVSPropertyOp29
 70
     1
102
RTVSPropertyOp30
 70
     1
102
RTVSPropertyOp31
 70
     1
102
RTVSPropertyOp32
 70
     1
102
RTVSPropertyOp33
 70
     1
102
RTVSPropertyOp34
 70
     1
102
RTVSPropertyOp35
 70
     1
102
RTVSPropertyOp36
 70
     1
102
RTVSPropertyOp37
 70
     1
102
RTVSPropertyOp38
 70
     1
102
RTVSPropertyOp39
 70
     1
102
RTVSPropertyOp40
 70
     1
102
RTVSPropertyOp41
 70
     1
102
RTVSPropertyOp42
 70
     1
102
RTVSPropertyOp43
 70
     1
102
RTVSPropertyOp44
 70
     1
102
RTVSPropertyOp45
 70
     1
102
RTVSPropertyOp46
 70
     1
102
RTVSPropertyOp47
 70
     1
102
RTVSPropertyOp48
 70
     1
102
RTVSPropertyOp49
 70
     1
102
RTVSPropertyOp50
 70
     1
102
RTVSPropertyOp51
 70
     0
102
RTVSPropertyOp52
 70
     0
102
RTVSPropertyOp53
 70
     1
102
RTVSPropertyOp54
 70
     1
102
RTVSPropertyOp55
 70
     1
102
RTVSPropertyOp56
 70
     1
102
RTVSPropertyOp57
 70
     1
102
RTVSPropertyOp58
 70
     1
102
RTVSPropertyOp59
 70
     1
102
RTVSPropertyOp60
 70
     1
102
RTVSPropertyOp61
 70
     1
102
RTVSPropertyOp62
 70
     1
  0
XRECORD
  5
458
102
{ACAD_REACTORS
330
457
102
}
330
457
100
AcDbXrecord
280
     1
102
RTVSPost2010Prop28
280
     0
102
RTVSPost2010PropOp28
 70
     1
102
RTVSPost2010Prop29
280
     1
102
RTVSPost2010PropOp29
 70
     1
102
RTVSPost2010Prop30
280
     1
102
RTVSPost2010PropOp30
 70
     1
102
RTVSPost2010Prop31
280
     0
102
RTVSPost2010PropOp31
 70
     1
102
RTVSPost2010Prop32
280
     0
102
RTVSPost2010PropOp32
 70
     1
102
RTVSPost2010Prop33
280
     0
102
RTVSPost2010PropOp33
 70
     1
102
RTVSPost2010Prop34
280
     0
102
RTVSPost2010PropOp34
 70
     1
102
RTVSPost2010Prop35
280
     0
102
RTVSPost2010PropOp35
 70
     1
102
RTVSPost2010Prop36
280
     0
102
RTVSPost2010PropOp36
 70
     1
102
RTVSPost2010Prop37
 90
       50
102
RTVSPost2010PropOp37
 70
     1
102
RTVSPost2010Prop38
140
0.0
102
RTVSPost2010PropOp38
 70
     1
102
RTVSPost2010Prop39
140
1.0
102
RTVSPost2010PropOp39
 70
     1
102
RTVSPost2010Prop40
 90
        0
102
RTVSPost2010PropOp40
 70
     1
102
RTVSPost2010Prop41ColorIndex
 90
       18
102
RTVSPost2010Prop41ColorRGB
 90
        0
102
RTVSPost2010PropOp41
 70
     1
102
RTVSPost2010Prop42
 90
       50
102
RTVSPost2010PropOp42
 70
     1
102
RTVSPost2010Prop43
 90
        3
102
RTVSPost2010PropOp43
 70
     1
102
RTVSPost2010Prop44ColorIndex
 90
        5
102
RTVSPost2010Prop44ColorRGB
 90
      255
102
RTVSPost2010PropOp44
 70
     1
102
RTVSPost2010Prop45
280
     0
102
RTVSPost2010PropOp45
 70
     1
102
RTVSPost2010Prop46
 90
       50
102
RTVSPost2010PropOp46
 70
     1
102
RTVSPost2010Prop47
 90
       50
102
RTVSPost2010PropOp47
 70
     1
102
RTVSPost2010Prop48
 90
       50
102
RTVSPost2010PropOp48
 70
     1
102
RTVSPost2010Prop49
280
     0
102
RTVSPost2010PropOp49
 70
     1
102
RTVSPost2010Prop50
 90
       50
102
RTVSPost2010PropOp50
 70
     1
102
RTVSPost2010Prop51ColorIndex
 90
      256
102
RTVSPost2010Prop51ColorRGB
 90
-16777216
102
RTVSPost2010PropOp51
 70
     0
102
RTVSPost2010Prop52
140
1.0
102
RTVSPost2010PropOp52
 70
     0
102
RTVSPost2010Prop53
 90
        2
102
RTVSPost2010PropOp53
 70
     1
102
RTVSPost2010Prop54
  1
strokes_ogs.tif
102
RTVSPost2010PropOp54
 70
     1
102
RTVSPost2010Prop55
280
     0
102
RTVSPost2010PropOp55
 70
     1
102
RTVSPost2010Prop56
140
1.0
102
RTVSPost2010PropOp56
 70
     1
102
RTVSPost2010Prop57
140
1.0
102
RTVSPost2010PropOp57
 70
     1
102
RTVSPropertyOp0
 70
     1
102
RTVSPropertyOp1
 70
     1
102
RTVSPropertyOp2
 70
     1
102
RTVSPropertyOp3
 70
     1
102
RTVSPropertyOp4
 70
     1
102
RTVSPropertyOp5
 70
     1
102
RTVSPropertyOp6
 70
     1
102
RTVSPropertyOp7
 70
     1
102
RTVSPropertyOp8
 70
     1
102
RTVSPropertyOp9
 70
     1
102
RTVSPropertyOp10
 70
     1
102
RTVSPropertyOp11
 70
     1
102
RTVSPropertyOp12
 70
     1
102
RTVSPropertyOp13
 70
     1
102
RTVSPropertyOp14
 70
     1
102
RTVSPropertyOp15
 70
     1
102
RTVSPropertyOp16
 70
     1
102
RTVSPropertyOp17
 70
     1
102
RTVSPropertyOp18
 70
     1
102
RTVSPropertyOp19
 70
     1
102
RTVSPropertyOp20
 70
     1
102
RTVSPropertyOp21
 70
     1
102
RTVSPropertyOp22
 70
     1
102
RTVSPropertyOp23
 70
     1
102
RTVSPropertyOp24
 70
     1
102
RTVSPropertyOp25
 70
     1
102
RTVSPropertyOp26
 70
     1
102
RTVSPropertyOp27
 70
     1
102
RTVSPropertyOp28
 70
     1
102
RTVSPropertyOp29
 70
     1
102
RTVSPropertyOp30
 70
     1
102
RTVSPropertyOp31
 70
     1
102
RTVSPropertyOp32
 70
     1
102
RTVSPropertyOp33
 70
     1
102
RTVSPropertyOp34
 70
     1
102
RTVSPropertyOp35
 70
     1
102
RTVSPropertyOp36
 70
     1
102
RTVSPropertyOp37
 70
     1
102
RTVSPropertyOp38
 70
     1
102
RTVSPropertyOp39
 70
     1
102
RTVSPropertyOp40
 70
     1
102
RTVSPropertyOp41
 70
     1
102
RTVSPropertyOp42
 70
     1
102
RTVSPropertyOp43
 70
     1
102
RTVSPropertyOp44
 70
     1
102
RTVSPropertyOp45
 70
     1
102
RTVSPropertyOp46
 70
     1
102
RTVSPropertyOp47
 70
     1
102
RTVSPropertyOp48
 70
     1
102
RTVSPropertyOp49
 70
     1
102
RTVSPropertyOp50
 70
     1
102
RTVSPropertyOp51
 70
     0
102
RTVSPropertyOp52
 70
     0
102
RTVSPropertyOp53
 70
     1
102
RTVSPropertyOp54
 70
     1
102
RTVSPropertyOp55
 70
     1
102
RTVSPropertyOp56
 70
     1
102
RTVSPropertyOp57
 70
     1
102
RTVSPropertyOp58
 70
     1
102
RTVSPropertyOp59
 70
     1
102
RTVSPropertyOp60
 70
     1
102
RTVSPropertyOp61
 70
     1
102
RTVSPropertyOp62
 70
     1
  0
XRECORD
  5
44E
102
{ACAD_REACTORS
330
44D
102
}
330
44D
100
AcDbXrecord
280
     1
102
RTVSPost2010Prop28
280
     0
102
RTVSPost2010PropOp28
 70
     1
102
RTVSPost2010Prop29
280
     1
102
RTVSPost2010PropOp29
 70
     1
102
RTVSPost2010Prop30
280
     1
102
RTVSPost2010PropOp30
 70
     1
102
RTVSPost2010Prop31
280
     0
102
RTVSPost2010PropOp31
 70
     1
102
RTVSPost2010Prop32
280
     0
102
RTVSPost2010PropOp32
 70
     1
102
RTVSPost2010Prop33
280
     0
102
RTVSPost2010PropOp33
 70
     1
102
RTVSPost2010Prop34
280
     0
102
RTVSPost2010PropOp34
 70
     1
102
RTVSPost2010Prop35
280
     0
102
RTVSPost2010PropOp35
 70
     1
102
RTVSPost2010Prop36
280
     0
102
RTVSPost2010PropOp36
 70
     1
102
RTVSPost2010Prop37
 90
       50
102
RTVSPost2010PropOp37
 70
     1
102
RTVSPost2010Prop38
140
0.0
102
RTVSPost2010PropOp38
 70
     1
102
RTVSPost2010Prop39
140
1.0
102
RTVSPost2010PropOp39
 70
     1
102
RTVSPost2010Prop40
 90
        0
102
RTVSPost2010PropOp40
 70
     1
102
RTVSPost2010Prop41ColorIndex
 90
       18
102
RTVSPost2010Prop41ColorRGB
 90
        0
102
RTVSPost2010PropOp41
 70
     1
102
RTVSPost2010Prop42
 90
       50
102
RTVSPost2010PropOp42
 70
     1
102
RTVSPost2010Prop43
 90
        3
102
RTVSPost2010PropOp43
 70
     1
102
RTVSPost2010Prop44ColorIndex
 90
        5
102
RTVSPost2010Prop44ColorRGB
 90
      255
102
RTVSPost2010PropOp44
 70
     1
102
RTVSPost2010Prop45
280
     0
102
RTVSPost2010PropOp45
 70
     1
102
RTVSPost2010Prop46
 90
       50
102
RTVSPost2010PropOp46
 70
     1
102
RTVSPost2010Prop47
 90
       50
102
RTVSPost2010PropOp47
 70
     1
102
RTVSPost2010Prop48
 90
       50
102
RTVSPost2010PropOp48
 70
     1
102
RTVSPost2010Prop49
280
     0
102
RTVSPost2010PropOp49
 70
     1
102
RTVSPost2010Prop50
 90
       50
102
RTVSPost2010PropOp50
 70
     1
102
RTVSPost2010Prop51ColorIndex
 90
      256
102
RTVSPost2010Prop51ColorRGB
 90
-16777216
102
RTVSPost2010PropOp51
 70
     0
102
RTVSPost2010Prop52
140
1.0
102
RTVSPost2010PropOp52
 70
     0
102
RTVSPost2010Prop53
 90
        2
102
RTVSPost2010PropOp53
 70
     1
102
RTVSPost2010Prop54
  1
strokes_ogs.tif
102
RTVSPost2010PropOp54
 70
     1
102
RTVSPost2010Prop55
280
     0
102
RTVSPost2010PropOp55
 70
     1
102
RTVSPost2010Prop56
140
1.0
102
RTVSPost2010PropOp56
 70
     1
102
RTVSPost2010Prop57
140
1.0
102
RTVSPost2010PropOp57
 70
     1
102
RTVSPropertyOp0
 70
     1
102
RTVSPropertyOp1
 70
     1
102
RTVSPropertyOp2
 70
     1
102
RTVSPropertyOp3
 70
     1
102
RTVSPropertyOp4
 70
     1
102
RTVSPropertyOp5
 70
     1
102
RTVSPropertyOp6
 70
     1
102
RTVSPropertyOp7
 70
     1
102
RTVSPropertyOp8
 70
     1
102
RTVSPropertyOp9
 70
     1
102
RTVSPropertyOp10
 70
     1
102
RTVSPropertyOp11
 70
     1
102
RTVSPropertyOp12
 70
     1
102
RTVSPropertyOp13
 70
     1
102
RTVSPropertyOp14
 70
     1
102
RTVSPropertyOp15
 70
     1
102
RTVSPropertyOp16
 70
     1
102
RTVSPropertyOp17
 70
     1
102
RTVSPropertyOp18
 70
     1
102
RTVSPropertyOp19
 70
     1
102
RTVSPropertyOp20
 70
     1
102
RTVSPropertyOp21
 70
     1
102
RTVSPropertyOp22
 70
     1
102
RTVSPropertyOp23
 70
     1
102
RTVSPropertyOp24
 70
     1
102
RTVSPropertyOp25
 70
     1
102
RTVSPropertyOp26
 70
     1
102
RTVSPropertyOp27
 70
     1
102
RTVSPropertyOp28
 70
     1
102
RTVSPropertyOp29
 70
     1
102
RTVSPropertyOp30
 70
     1
102
RTVSPropertyOp31
 70
     1
102
RTVSPropertyOp32
 70
     1
102
RTVSPropertyOp33
 70
     1
102
RTVSPropertyOp34
 70
     1
102
RTVSPropertyOp35
 70
     1
102
RTVSPropertyOp36
 70
     1
102
RTVSPropertyOp37
 70
     1
102
RTVSPropertyOp38
 70
     1
102
RTVSPropertyOp39
 70
     1
102
RTVSPropertyOp40
 70
     1
102
RTVSPropertyOp41
 70
     1
102
RTVSPropertyOp42
 70
     1
102
RTVSPropertyOp43
 70
     1
102
RTVSPropertyOp44
 70
     1
102
RTVSPropertyOp45
 70
     1
102
RTVSPropertyOp46
 70
     1
102
RTVSPropertyOp47
 70
     1
102
RTVSPropertyOp48
 70
     1
102
RTVSPropertyOp49
 70
     1
102
RTVSPropertyOp50
 70
     1
102
RTVSPropertyOp51
 70
     0
102
RTVSPropertyOp52
 70
     0
102
RTVSPropertyOp53
 70
     1
102
RTVSPropertyOp54
 70
     1
102
RTVSPropertyOp55
 70
     1
102
RTVSPropertyOp56
 70
     1
102
RTVSPropertyOp57
 70
     1
102
RTVSPropertyOp58
 70
     1
102
RTVSPropertyOp59
 70
     1
102
RTVSPropertyOp60
 70
     1
102
RTVSPropertyOp61
 70
     1
102
RTVSPropertyOp62
 70
     1
  0
XRECORD
  5
442
102
{ACAD_REACTORS
330
441
102
}
330
441
100
AcDbXrecord
280
     1
102
RTVSPost2010Prop28
280
     0
102
RTVSPost2010PropOp28
 70
     1
102
RTVSPost2010Prop29
280
     1
102
RTVSPost2010PropOp29
 70
     1
102
RTVSPost2010Prop30
280
     1
102
RTVSPost2010PropOp30
 70
     1
102
RTVSPost2010Prop31
280
     0
102
RTVSPost2010PropOp31
 70
     1
102
RTVSPost2010Prop32
280
     0
102
RTVSPost2010PropOp32
 70
     1
102
RTVSPost2010Prop33
280
     0
102
RTVSPost2010PropOp33
 70
     1
102
RTVSPost2010Prop34
280
     0
102
RTVSPost2010PropOp34
 70
     1
102
RTVSPost2010Prop35
280
     0
102
RTVSPost2010PropOp35
 70
     1
102
RTVSPost2010Prop36
280
     0
102
RTVSPost2010PropOp36
 70
     1
102
RTVSPost2010Prop37
 90
       50
102
RTVSPost2010PropOp37
 70
     1
102
RTVSPost2010Prop38
140
0.0
102
RTVSPost2010PropOp38
 70
     1
102
RTVSPost2010Prop39
140
1.0
102
RTVSPost2010PropOp39
 70
     1
102
RTVSPost2010Prop40
 90
        0
102
RTVSPost2010PropOp40
 70
     1
102
RTVSPost2010Prop41ColorIndex
 90
       18
102
RTVSPost2010Prop41ColorRGB
 90
        0
102
RTVSPost2010PropOp41
 70
     1
102
RTVSPost2010Prop42
 90
       50
102
RTVSPost2010PropOp42
 70
     1
102
RTVSPost2010Prop43
 90
        3
102
RTVSPost2010PropOp43
 70
     1
102
RTVSPost2010Prop44ColorIndex
 90
        5
102
RTVSPost2010Prop44ColorRGB
 90
      255
102
RTVSPost2010PropOp44
 70
     1
102
RTVSPost2010Prop45
280
     0
102
RTVSPost2010PropOp45
 70
     1
102
RTVSPost2010Prop46
 90
       50
102
RTVSPost2010PropOp46
 70
     1
102
RTVSPost2010Prop47
 90
       50
102
RTVSPost2010PropOp47
 70
     1
102
RTVSPost2010Prop48
 90
       50
102
RTVSPost2010PropOp48
 70
     1
102
RTVSPost2010Prop49
280
     0
102
RTVSPost2010PropOp49
 70
     1
102
RTVSPost2010Prop50
 90
       50
102
RTVSPost2010PropOp50
 70
     1
102
RTVSPost2010Prop51ColorIndex
 90
      256
102
RTVSPost2010Prop51ColorRGB
 90
-16777216
102
RTVSPost2010PropOp51
 70
     0
102
RTVSPost2010Prop52
140
1.0
102
RTVSPost2010PropOp52
 70
     0
102
RTVSPost2010Prop53
 90
        2
102
RTVSPost2010PropOp53
 70
     1
102
RTVSPost2010Prop54
  1
strokes_ogs.tif
102
RTVSPost2010PropOp54
 70
     1
102
RTVSPost2010Prop55
280
     0
102
RTVSPost2010PropOp55
 70
     1
102
RTVSPost2010Prop56
140
1.0
102
RTVSPost2010PropOp56
 70
     1
102
RTVSPost2010Prop57
140
1.0
102
RTVSPost2010PropOp57
 70
     1
102
RTVSPropertyOp0
 70
     1
102
RTVSPropertyOp1
 70
     1
102
RTVSPropertyOp2
 70
     1
102
RTVSPropertyOp3
 70
     1
102
RTVSPropertyOp4
 70
     1
102
RTVSPropertyOp5
 70
     1
102
RTVSPropertyOp6
 70
     1
102
RTVSPropertyOp7
 70
     1
102
RTVSPropertyOp8
 70
     1
102
RTVSPropertyOp9
 70
     1
102
RTVSPropertyOp10
 70
     1
102
RTVSPropertyOp11
 70
     1
102
RTVSPropertyOp12
 70
     1
102
RTVSPropertyOp13
 70
     1
102
RTVSPropertyOp14
 70
     1
102
RTVSPropertyOp15
 70
     1
102
RTVSPropertyOp16
 70
     1
102
RTVSPropertyOp17
 70
     1
102
RTVSPropertyOp18
 70
     1
102
RTVSPropertyOp19
 70
     1
102
RTVSPropertyOp20
 70
     1
102
RTVSPropertyOp21
 70
     1
102
RTVSPropertyOp22
 70
     1
102
RTVSPropertyOp23
 70
     1
102
RTVSPropertyOp24
 70
     1
102
RTVSPropertyOp25
 70
     1
102
RTVSPropertyOp26
 70
     1
102
RTVSPropertyOp27
 70
     1
102
RTVSPropertyOp28
 70
     1
102
RTVSPropertyOp29
 70
     1
102
RTVSPropertyOp30
 70
     1
102
RTVSPropertyOp31
 70
     1
102
RTVSPropertyOp32
 70
     1
102
RTVSPropertyOp33
 70
     1
102
RTVSPropertyOp34
 70
     1
102
RTVSPropertyOp35
 70
     1
102
RTVSPropertyOp36
 70
     1
102
RTVSPropertyOp37
 70
     1
102
RTVSPropertyOp38
 70
     1
102
RTVSPropertyOp39
 70
     1
102
RTVSPropertyOp40
 70
     1
102
RTVSPropertyOp41
 70
     1
102
RTVSPropertyOp42
 70
     1
102
RTVSPropertyOp43
 70
     1
102
RTVSPropertyOp44
 70
     1
102
RTVSPropertyOp45
 70
     1
102
RTVSPropertyOp46
 70
     1
102
RTVSPropertyOp47
 70
     1
102
RTVSPropertyOp48
 70
     1
102
RTVSPropertyOp49
 70
     1
102
RTVSPropertyOp50
 70
     1
102
RTVSPropertyOp51
 70
     0
102
RTVSPropertyOp52
 70
     0
102
RTVSPropertyOp53
 70
     1
102
RTVSPropertyOp54
 70
     1
102
RTVSPropertyOp55
 70
     1
102
RTVSPropertyOp56
 70
     1
102
RTVSPropertyOp57
 70
     1
102
RTVSPropertyOp58
 70
     1
102
RTVSPropertyOp59
 70
     1
102
RTVSPropertyOp60
 70
     1
102
RTVSPropertyOp61
 70
     1
102
RTVSPropertyOp62
 70
     1
  0
XRECORD
  5
45A
102
{ACAD_REACTORS
330
459
102
}
330
459
100
AcDbXrecord
280
     1
102
RTVSPost2010Prop28
280
     0
102
RTVSPost2010PropOp28
 70
     1
102
RTVSPost2010Prop29
280
     1
102
RTVSPost2010PropOp29
 70
     1
102
RTVSPost2010Prop30
280
     1
102
RTVSPost2010PropOp30
 70
     1
102
RTVSPost2010Prop31
280
     0
102
RTVSPost2010PropOp31
 70
     1
102
RTVSPost2010Prop32
280
     0
102
RTVSPost2010PropOp32
 70
     1
102
RTVSPost2010Prop33
280
     0
102
RTVSPost2010PropOp33
 70
     1
102
RTVSPost2010Prop34
280
     0
102
RTVSPost2010PropOp34
 70
     1
102
RTVSPost2010Prop35
280
     0
102
RTVSPost2010PropOp35
 70
     1
102
RTVSPost2010Prop36
280
     0
102
RTVSPost2010PropOp36
 70
     1
102
RTVSPost2010Prop37
 90
       50
102
RTVSPost2010PropOp37
 70
     1
102
RTVSPost2010Prop38
140
0.0
102
RTVSPost2010PropOp38
 70
     1
102
RTVSPost2010Prop39
140
1.0
102
RTVSPost2010PropOp39
 70
     1
102
RTVSPost2010Prop40
 90
        0
102
RTVSPost2010PropOp40
 70
     1
102
RTVSPost2010Prop41ColorIndex
 90
       18
102
RTVSPost2010Prop41ColorRGB
 90
        0
102
RTVSPost2010PropOp41
 70
     1
102
RTVSPost2010Prop42
 90
       50
102
RTVSPost2010PropOp42
 70
     1
102
RTVSPost2010Prop43
 90
        3
102
RTVSPost2010PropOp43
 70
     1
102
RTVSPost2010Prop44ColorIndex
 90
        5
102
RTVSPost2010Prop44ColorRGB
 90
      255
102
RTVSPost2010PropOp44
 70
     1
102
RTVSPost2010Prop45
280
     0
102
RTVSPost2010PropOp45
 70
     1
102
RTVSPost2010Prop46
 90
       50
102
RTVSPost2010PropOp46
 70
     1
102
RTVSPost2010Prop47
 90
       50
102
RTVSPost2010PropOp47
 70
     1
102
RTVSPost2010Prop48
 90
       50
102
RTVSPost2010PropOp48
 70
     1
102
RTVSPost2010Prop49
280
     0
102
RTVSPost2010PropOp49
 70
     1
102
RTVSPost2010Prop50
 90
       50
102
RTVSPost2010PropOp50
 70
     1
102
RTVSPost2010Prop51ColorIndex
 90
      256
102
RTVSPost2010Prop51ColorRGB
 90
-16777216
102
RTVSPost2010PropOp51
 70
     0
102
RTVSPost2010Prop52
140
1.0
102
RTVSPost2010PropOp52
 70
     0
102
RTVSPost2010Prop53
 90
        2
102
RTVSPost2010PropOp53
 70
     1
102
RTVSPost2010Prop54
  1
strokes_ogs.tif
102
RTVSPost2010PropOp54
 70
     1
102
RTVSPost2010Prop55
280
     0
102
RTVSPost2010PropOp55
 70
     1
102
RTVSPost2010Prop56
140
1.0
102
RTVSPost2010PropOp56
 70
     1
102
RTVSPost2010Prop57
140
1.0
102
RTVSPost2010PropOp57
 70
     1
102
RTVSPropertyOp0
 70
     1
102
RTVSPropertyOp1
 70
     1
102
RTVSPropertyOp2
 70
     1
102
RTVSPropertyOp3
 70
     1
102
RTVSPropertyOp4
 70
     1
102
RTVSPropertyOp5
 70
     1
102
RTVSPropertyOp6
 70
     1
102
RTVSPropertyOp7
 70
     1
102
RTVSPropertyOp8
 70
     1
102
RTVSPropertyOp9
 70
     1
102
RTVSPropertyOp10
 70
     1
102
RTVSPropertyOp11
 70
     1
102
RTVSPropertyOp12
 70
     1
102
RTVSPropertyOp13
 70
     1
102
RTVSPropertyOp14
 70
     1
102
RTVSPropertyOp15
 70
     1
102
RTVSPropertyOp16
 70
     1
102
RTVSPropertyOp17
 70
     1
102
RTVSPropertyOp18
 70
     1
102
RTVSPropertyOp19
 70
     1
102
RTVSPropertyOp20
 70
     1
102
RTVSPropertyOp21
 70
     1
102
RTVSPropertyOp22
 70
     1
102
RTVSPropertyOp23
 70
     1
102
RTVSPropertyOp24
 70
     1
102
RTVSPropertyOp25
 70
     1
102
RTVSPropertyOp26
 70
     1
102
RTVSPropertyOp27
 70
     1
102
RTVSPropertyOp28
 70
     1
102
RTVSPropertyOp29
 70
     1
102
RTVSPropertyOp30
 70
     1
102
RTVSPropertyOp31
 70
     1
102
RTVSPropertyOp32
 70
     1
102
RTVSPropertyOp33
 70
     1
102
RTVSPropertyOp34
 70
     1
102
RTVSPropertyOp35
 70
     1
102
RTVSPropertyOp36
 70
     1
102
RTVSPropertyOp37
 70
     1
102
RTVSPropertyOp38
 70
     1
102
RTVSPropertyOp39
 70
     1
102
RTVSPropertyOp40
 70
     1
102
RTVSPropertyOp41
 70
     1
102
RTVSPropertyOp42
 70
     1
102
RTVSPropertyOp43
 70
     1
102
RTVSPropertyOp44
 70
     1
102
RTVSPropertyOp45
 70
     1
102
RTVSPropertyOp46
 70
     1
102
RTVSPropertyOp47
 70
     1
102
RTVSPropertyOp48
 70
     1
102
RTVSPropertyOp49
 70
     1
102
RTVSPropertyOp50
 70
     1
102
RTVSPropertyOp51
 70
     0
102
RTVSPropertyOp52
 70
     0
102
RTVSPropertyOp53
 70
     1
102
RTVSPropertyOp54
 70
     1
102
RTVSPropertyOp55
 70
     1
102
RTVSPropertyOp56
 70
     1
102
RTVSPropertyOp57
 70
     1
102
RTVSPropertyOp58
 70
     1
102
RTVSPropertyOp59
 70
     1
102
RTVSPropertyOp60
 70
     1
102
RTVSPropertyOp61
 70
     1
102
RTVSPropertyOp62
 70
     1
  0
ENDSEC
  0
EOF
